Oops, an error
Loading. Please wait.

Run For Your Life Bass Tab

707 views 1 this week
no commentswrite comment
1 2 3 4 5
please rate
add to favorites
launch autoscroll
font size
0
reset
guitar tuner
Tab Pro tools
  • play this tab
  • loop segment
  • change instrument
  • show fretboard
  • metronome
×
Best way to learn
"Run For Your Life"
Autoscroll
slow
fast
+/-
esc
set tempo
stop
Contributor
--------------------------------------------------------------------
                             RUN FOR YOUR LIFE - The Fray
-------------------------------------------------------------------------------

Tabbed By : Alex Diaz
e-mail: 

Tuning: Standardzorzz

Verse 0:30
Both of you fell the same day... 
G|-------------------------------------------------------------------|
D|-------------------------------------------------------------------|
A|-------------------------------------------------------------------|
E|-0-22~--2-2~---4-66~--3-99~--0-22~-2-2~--4-66~--8-99~-6-44~--4-22~-|

Prechorus 0:51
Wooohoohoh…     
G|------------------------------------|
D|----------------------/4-3---/11111-|
A|------------------------------------|
E|-4-66~-8-99~--9-8-6-2~--------------|

Chorus 1:01
Run for your life…                                
G|----------------------------------------------------------|
D|---------------------------------6------------------------|
A|-44444444444---4-44444444---------6-----------------------|
E|------------4-6----------44444444--4444432222222246666666-|

G|--------------------|
D|--------------------|
A|--------------------|
E|899999999\444444446-|

Verse 1:24
She had a fire inside… 
G|----------------------------------------------|
D|----------------------------------------------|
A|-----------------------------8-9~-98----------|
E|-0-22~--22~---4-66~--8-99~--9-------96~--8-9~-|

1:41
And I know that the hunger inside you is strong…
G|-------------6---|
D|-------6~\4~---4-|
A|-----------------|
E|-/024~-----------|

Prechorus 1:51
Wooohoohoh…   
G|----------------------------------------/3----------------------|
D|------------------------------------------3---------------------|
A|---------------------89~--8--66~-/6-54-1~---4~---69~-9-8---6666-|
E|-24-66~-68-99~--9-11-------9--------------------9--------9------|

Chorus 2:09
Run for your life…                          
G|-------------------------------------------------------------|
D|----------------------------------6-------6------------------|
A|-44444444444----4-44444444---------6-------------------------|
E|------------4-6-----------44444444--444444-42222222246666666-|

G|--------------------------------------/5\6/5/6-------------------|
D|-------------------------------------------------------------8-8-|
A|-----------------------------------------------------------------|
E|-899999999-467-99999999-4-111111111111--------222222466666666-6--|

G|--------------------|
D|--------------------|
A|-444444444333333333-|
E|--------------------|

Bridge
2:40
G|---------------------------------------------------|
D|---------------------------------------------------|
A|-1-1-1-1-1-1-1-4-4-4-4-4-4-4-6-9-9-9-9-8-6-6-6-6-6-|
E|---------------------------------------------------|

G|-----------------------------------------------11-10-8-6-|
D|---------------------------------------13-13-13----------|
A|-1-1-1-1-1--4-4-4-4-4-4-4-6-9-9-9-9-9-8------------------|
E|--------3-3----------------------------------------------| 

Chorus 2:58
Run for your life…                          
G|------------------------------------------------------------|
D|---------------------------------6--------------------------|
A|-44444444444---4-44444444---------6-------------------------|
E|------------4-6----------44444444--444444442222222246666666-|

G|---------------------------------------|
D|---------------------------------------|
A|---------------------------------------|
E|-899999999-467-99999999-4-111111111111-|

Outro
G|-------------|
D|--/8------6~-|
A|-9--3-44~----|
E|-------------|

G|---------------------------/6-53-----------|
D|-3h4~-----42---------3h4~-------3~---------|
A|------------1~-3-4~---------------34~--3---|
E|----------------------------------------2~-|





comments
We did not receive enough feedback on this tab! Please rate:
print report bad tab
1 2 3 4 5
I want to post or [tab]
guest
You may want to rate the tab now too:
select rating
Please do not post tabs as comments. Select "correction" instead!