Oops, an error
Loading. Please wait.

Say When Bass Tab

version 1
version 1

Whole song

Interactive

858 views 6 this week
no commentswrite comment
1 2 3 4 5
please rate
add to favorites
launch autoscroll
font size
0
reset
guitar tuner
Tab Pro tools
  • play this tab
  • loop segment
  • change instrument
  • show fretboard
  • metronome
×
Best way to learn
"Say When"
Autoscroll
slow
fast
+/-
esc
set tempo
stop
Contributor
Difficulty
intermediate
-------------------------------------------------------------------------------
			     SAY WHEN - The Fray
-------------------------------------------------------------------------------

Tabbed By : Alex Diaz
e-mail: AlexD97@live.se

Tuning: Standard

This song is good. The bridge is just ... cool.

Verse: What's your name...
G|-----------------|
D|-----------------|
A|-----------------|
E|-2~--5~--10~--7~-|2x

You've been the song playing the background...
G|--------------------------|
D|--------------------------|
A|-----------8-7-5~--3/5----|
E|-/2~-2h4-5~-------------7~|4x

Pre-chorus
G|----------|
D|----------|
A|----------|
E|-55555555-|

Chorus: And, my two hands...
G|---------------------------------------------------------------|
D|------7h9p7-----------------9h11p9-----------------4h6p4-------|
A|-55-5-------5--------------------------------------------------|
E|---------------555555--77-7-------7-5555555555-22-2-----555555-|

Pre-chorus
G|----------|
D|----------|
A|----------|
E|-55555555-|

Chorus
G|---------------------------------------------------------------|
D|------7h9p7-----------------9h11p9-----------------4h6p4-------|
A|-55-5-------5--------------------------------------------------|
E|---------------555555--77-7-------7-5555555555-22-2-----555555-|

Pause, during the guitar part.

Verse 2: Come close, and even closer...
G|---------------------------|
D|---------------------------|
A|-----------8-7-5~--3/5-----|
E|-/2~-2h4-5~-------------777|2x

Later on, it if turns to chaos...
G|---------------------------|
D|---------------------------|
A|----------8-7-5~--3/5------|
E|-2~-2h4-5~-------------777/|

See the crack...
G|--------------------------|
D|--------------------------|
A|----------8-7-5~--3/5-----|
E|-2~-2h4-5~-------------777|

Pre-chorus: Say when...
G|----------|
D|----------|
A|----------|
E|-55555555-|

Chorus
G|---------------------------------------------------------------|
D|------7h9p7-----------------9h11p9-----------------4h6p4-------|
A|-55-5-------5--------------------------------------------------|
E|---------------555555--77-7-------7-5555555555-22-2-----555555-|


Pre-chorus
G|----------|
D|----------|
A|----------|
E|-55555555-|

Chorus
G|---------------------------------------------------------------|
D|------7h9p7-----------------9h11p9-----------------4h6p4-------|
A|-55-5-------5--------------------------------------------------|
E|---------------555555--77-7-------7-5555555555-22-2-----555555-|

G|----|
D|----|
A|----|
E|-2~-|

Pause

Piano solo 
G|-----------------|
D|-----------------|
A|-----------------|
E|-2~--5~--10~--7~-|

G|--------------------|
D|--------------------|
A|--------------------|
E|-2~--5~--10~\8-5-7~-|

G|-----------------|
D|-----------------|
A|-----------------|
E|-2~--5~--10~--7~-|

G|--------------------|
D|--------------------|
A|--------------------|
E|-2~--5~--10~\8-5-7~-|

Pause: You come across...

They're coming back...
G|-----------------|
D|-----------------|
A|-----------------|
E|-2~--5~--10~--7~-|2x

Verse: Now, we're here...
G|--------------------------|
D|--------------------------|
A|-----------8-7-5~--3/5----|
E|-/2~-2h4-5~-------------7~|2x

G|-------|
D|-------|
A|-------|
E|-77-77-|

G|--------------------------|
D|--------------------------|
A|-----------8-7-5~--3/5----|
E|-/2~-2h4-5~-------------7~|2x

Bridge: Maybe God, could be on both sides...
G|---------------------------------------------|
D|---------------777---------------------------|
A|-------------------8-7-55-55-5-3/5-----------|
E|-2-22-2-44-5-55---------------------77-7-7-7/|4x

Chorus: And my two hands...
G|---------------------------------------------------------------|
D|------7h9p7-----------------9h11p9-----------------4h6p4-------|
A|-55-5-------5--------------------------------------------------|
E|---------------555555--77-7-------7-5555555555-22-2-----555555-|

Pre-chorus
G|----------|
D|----------|
A|----------|
E|-55555555-|

Chorus
G|---------------------------------------------------------|
D|------7h9p7-----------------9h11p9-----------------4h6p4-|
A|-55-5-------5--------------------------------------------|
E|---------------555555--77-7-------7-5555555555-22-2------|

Outro
G|-----------------|
D|-----------------|
A|-----------------|
E|-555555555555555-|

comments
We did not receive enough feedback on this tab! Please rate:
print report bad tab
1 2 3 4 5
I want to post or [tab]
guest
You may want to rate the tab now too:
select rating
Please do not post tabs as comments. Select "correction" instead!