Oops, an error
Loading. Please wait.

She Is Bass Tab

2,530 views 6 this week
no commentswrite comment
1 2 3 4 5
excellent!
x 3
add to favorites
launch autoscroll
font size
0
reset
guitar tuner
Autoscroll
slow
fast
+/-
esc
set tempo
stop
Help us to improve Ultimate-Guitar.com Take our survey!
×
Author
After seeking on the internet and on forums I found someone who tabbed this 
song for me, but he was kinda (way) off. So i perfected it myself with the 
help of my bassteacher.
The notes are correct although the tab is excluding the riffs inbetween 
"normal" notes. 


-------------------------------------------------------------------------------
			     SHE IS - The Fray
-------------------------------------------------------------------------------

Tabbed By : Bogey

Tuning: EADG

Intro

G|---------------------------------------------|------------------------------|
D|---------------------------------------------|------------------------------|
A|--------------------------------------5---6--|---8888888888888888-----------|
E|----3--3--1-3---5---6-----3--3--1-3----------|------------------------------|

Verse

G|------------------------------------------|
D|---------------1--------------------------|
A|-----3--------------------------1---------|      (2x)
E|-----------------------3------------------|   

G|-------------------------------------------|
D|----------------1--1-----------------------|
A|-----3--3---------------------------1--1---|	   (2x)
E|-------------------------3--3--------------|

Pre-chorus

G|-------------------------------------------------------------------------------|
D|-------------------------1--------1--------------------------------------------|
A|----3--------------------------------------3-----------------------------------|
E|--------------3-------------------------------------3-------1[111111111111111]-|

Chorus

G|------------------------------------------------------|
D|---------------------3--------------------------------|
A|--------------1----------1---6----5---3---[3-5-3-1]---|   3x*
E|-3------1--3------------------------------------------|

G|---------------------------------------------------------------------------|
D|---------------------3-----------------------------------------------------|
A|--------------1----------1---3---------5---------6---------6--666666-------|
E|-3------1--3---------------------------------------------------------------|


Order to play:

Intro 
Verse
Pre-chorus
Chorus
Verse
Pre-chorus
chorus
Verse
Pre-chorus
chorus
pre-chorus (without the part in brackets, just let ring)
Intro (play the part before the line ( | ) twice, then continue beyond the line)
chorus (End is after playing the chorus a few times and ends on an D# (first
"6" on A))

*Means: flexible part in the chorus, these riffs are continually played 
variantly. You could use my riff between brackets or make something up yourself.
Suggest correction
Give kudos to tab author, rate the tab!
1 2 3 4 5
comments
print report bad tab
guest
You may want to rate the tab now too:
select rating
Wanna post a correction for this tab? Suggest correction