Oops, an error
Loading. Please wait.

Trust Me Bass Tab

763 views 1 this week
no commentswrite comment
1 2 3 4 5
please rate
add to favorites
launch autoscroll
font size
0
reset
guitar tuner
Autoscroll
slow
fast
+/-
esc
set tempo
stop
Help us to improve Ultimate-Guitar.com Take our survey!
×
Author
Difficulty
intermediate
-------------------------------------------------------------------------------
			    TRUST ME - The Fray
-------------------------------------------------------------------------------

Tabbed By : Alex Diaz
e-mail: 

Tuning: Standard



Verse
o:54 You will understand...
G|------------------------------------|
D|------------------------------------|
A|------------------------------------|
E|-5-5~--9-9~--9/12-12~--12/17-17~17\-|

G|-------------------------------------|
D|-------------------------------7-----|
A|------7------------------------------|
E|-5-5~5-5--9-9~-9/12-12~\5-5~-5---11\-|x4


Prechorus
1:39 We're always taking turns...
G|--------------------|
D|--------------------|
A|---------11~----14~-|
E|-5~----9~----12~----|

G|-----------------|
D|-----------------|
A|---------11~-----|
E|-5~----9~----12~-|

Chorus (Listen to how the bassist plays)
1:56 ..aaaaand..
G|-----------------------------------------------------|
D|-----------------------------------------------------|
A|-----------------------------------------------------|
E|-55-5-5-55-5-55-5-55-5-55-55--99-9-9-99-9-99-99-9-99-|

G|--------------------------------------|
D|--------------------------------------|
A|---------------------------------14---|
E|-12-1212-12-12-1212-12-1212-12-12--12-|

G|--------------------------------------------------------|
D|----------------------7--6------------------------------|
A|----------------------------------------------------11--|
E|-55-5-5-55-5-55-5-55-5--9--7-99-9-9-99-9-99-99-9-99---9-|


G|-----------------------------------------------|
D|-----------------------------------------------|
A|---------------------------------14---11-12-11-|
E|-12-1212-12-12-1212-12-1212-12-12--12----------|

G|----------------------------------------------------------------|
D|-------7--6--------7--7--6--------7--6-----------7--6-----------|
A|----------------------------------------------------------------|
E|-5-5~---9--7---5-5~----9--7--9-9~--9--7---121212---9--7-5-4-2-4-|


G|-----------------------------------------------------------|
D|-------7--6--------7--7--6--------7--6---------------------|
A|-----------------------------------------------------------|
E|-5-5~---9--7---5-5~----9--7--9-9~--9--7----0r-0r-0r-0r-<12>|

I don't really think that it stops with a 12, but it sounds nice. 
Suggest correction
Give kudos to tab author, rate the tab!
1 2 3 4 5
comments
print report bad tab
guest
You may want to rate the tab now too:
select rating
Wanna post a correction for this tab? Suggest correction