Oops, an error
Loading. Please wait.

Vienna Tab

4,605 views 1 this week
no commentswrite comment
1 2 3 4 5
please rate
add to favorites
launch autoscroll
font size
0
reset
how to read this tab
guitar tuner
Tab Pro tools
  • play this tab
  • loop segment
  • change instrument
  • show fretboard
  • metronome
×
Best way to learn
"Vienna"
Autoscroll
slow
fast
+/-
esc
set tempo
stop
Contributor
Capo
1st fret
This is a cover version transposed from piano.


Standard tuning   capo 1st fret


intro/Chorus Pt1

e----------------------------------|     1st two times are quiet the last two
B------3--------3--------3-3-5-3-2-|     have a little more heaviness to it
G-2----2--2-----2--2-----2-2-2-2-2-| 4x
D---4--4----2---2----0---0-2---2---|
A---------0---0----2---2-----------|
E-3---3----------------------------|

verse

e-2--2--0--0--3--3--2--2-0-  ------------------------|
B--3--3--3--3--3--3--3-----  -3---3-5-3-2-3--3-5-3-2-|
G--------------------------  -2-2---------2-2--------|
D-0----------2-------------  -0-----------0----------| 2X
A------0-------------------  ------------------------|
E------------------3-------  -3-----------3----------|


Pre-Chorus

e-----------|     -----------|      ----|
B--3-3--3-3-|     --3-3--3-3-|      -3--|
G--0-0--0-0-|     --2-2--2-2-|      -2--|
D-----------| 2X  -----------| 2X   -2--|
A-----------|     -2-----2---|      -0--|
E-0---0-----|     -----------|      ----|


Chorus Pt 1 (same as the intro)

Chorus Pt 2

e--------------------------|
B-----3----------3-----2/3-|
G---0---0-0----2--2-2--2---|
D--2-2---2----4-4--4---2---|
A----------------------0---|
E-0--0-------3--3----------|


Bridge


Uses these chords
                          B                               D
B [x2023x]      Maybe in five or ten yours and mine will meet again
A [x0223x]                         E     G    A
D [xx0230]       Straighten this whole thing out
E [022030]
G [3x423x]



The order
B  D  E G  A  2x


Pre-chorus (kind of a strumming pattern)

Chorus

Pre-chorus

My 1st tab please comment and help me do a little better next tab
comments
We did not receive enough feedback on this tab! Please rate:
print report bad tab
1 2 3 4 5
I want to post or [tab]
guest
You may want to rate the tab now too:
select rating
Please do not post tabs as comments. Select "correction" instead!