Oops, an error
Loading. Please wait.

You Found Me Tab

version 1
version 1

Acoustic

Whole song

Interactive

Video

28,814 views 9 this week
no commentswrite comment
1 2 3 4 5
excellent!
x 4
add to favorites
launch autoscroll
font size
0
reset
how to read this tab
guitar tuner
Autoscroll
slow
fast
+/-
esc
set tempo
stop
Help us to improve Ultimate-Guitar.com Take our survey!
×
Author
Capo
4th fret
-------------------------------------------------------------------------------
                             You found me (acoustic) - The Fray
-------------------------------------------------------------------------------
Tabbed by: Benny
Email: off.spring@web.de

Tuning: standard
Capo on 4th

Intro:

e|--------------------------------------------|
B|--------------------------------------------|
G|--------------------------------------------|
D|-2-2-2--2-2-2--2-2-2--2-2-2--2-2-2--2-2-2---|
A|-2-2-2--2-2-2--2-2-2--2-2-2--2-2-2--2-2-2---|
E|-0-0-0--0-0-0--0-0-0--0-0-0--0-0-0--0-0-0---|
   \ \ /  \ \ /  \ \ /  \ \ /  \ \ /  \ \ /


Verse 1:


e|---------------------------------------------------------------------------|
B|---------------------------------------------------------------------------|
G|---------------------------------------------------------------------------|
D|---------------2-2-2--2-2-2----------------2-2-2--2-2-2--------------------|
A|---------------2-2-2--2-2-2----------------3-3-3--3-3-3--------------------|
E|-2-2-2--3-3-3--0-0-0--0-0-0--2-2-2--3-3-3--0-0-0--0-0-0--------------------|
   \ \ /  \ \ /  \ \ /  \ \ /  \ \ /  \ \ /  \ \ /  \ \ /

   I      found  God   on the  corner of     Amistad
                                first and

e|---------------------------------------------------------------------------|
B|---------------------------------------------------------------------------|
G|---------------------------------------------------------------------------|
D|---------------2-2-2--2-2-2----------------2-2-2--2-2-2--------------------|
A|---------------2-2-2--2-2-2----------------3-3-3--3-3-3--------------------|
E|-2-2-2--3-3-3--0-0-0--0-0-0--2-2-2--3-3-3--0-0-0--0-0-0--------------------|
   \ \ /  \ \ /  \ \ /  \ \ /  \ \ /  \ \ /  \ \ /  \ \ /

   Where the     west   was    all    but    won


e|---------------------------------------------------------------------------|
B|---------------------------------------------------------------------------|
G|---------------------------------------------------------------------------|
D|---------------2-2-2--2-2-2----------------2-2-2--2-2-2--------------------|
A|---------------2-2-2--2-2-2----------------3-3-3--3-3-3--------------------|
E|-2-2-2--3-3-3--0-0-0--0-0-0--2-2-2--3-3-3--0-0-0--0-0-0--------------------|
   \ \ /  \ \ /  \ \ /  \ \ /  \ \ /  \ \ /  \ \ /  \ \ /

   All    a  -   lone          smoking his   cigarette    I said
                                last

e|---------------------------------------------------------------------------|
B|---------------------------------------------------------------------------|
G|---------------------------------------------------------------------------|
D|---------------2-2-2--2-2-2----------------2-2-2--2-2-2--------------------|
A|---------------2-2-2--2-2-2----------------3-3-3--3-3-3--------------------|
E|-2-2-2--3-3-3--0-0-0--0-0-0--2-2-2--3-3-3--0-0-0--0-0-0--------------------|
   \ \ /  \ \ /  \ \ /  \ \ /  \ \ /  \ \ /  \ \ /  \ \ /

    where you    been, he said ask any  -    thing


Verse 2:


e|---------------------------------------------------------------------------|
B|-------------------------------------------1-1-1--1-1-1--------------------|
G|---------------0-0-0--0-0-0----------------0-0-0--0-0-0--------------------|
D|---------------2-2-2--2-2-2----------------2-2-2--2-2-2--------------------|
A|---------------2-2-2--2-2-2----------------3-3-3--3-3-3--------------------|
E|-2-2-2--3-3-3--0-0-0--0-0-0--2-2-2--3-3-3--0-0-0--0-0-0--------------------|
   \ \ /  \ \ /  \ \ /  \ \ /  \ \ /  \ \ /  \ \ /  \ \ /

   Where  were   you?   When   everything    falling apart
                                   was

e|---------------------------------------------------------------------------|
B|-------------------------------------------1-1-1--1-1-1--------------------|
G|---------------0-0-0--0-0-0----------------0-0-0--0-0-0--------------------|
D|---------------2-2-2--2-2-2----------------2-2-2--2-2-2--------------------|
A|---------------2-2-2--2-2-2----------------3-3-3--3-3-3--------------------|
E|-2-2-2--3-3-3--0-0-0--0-0-0--2-2-2--3-3-3--0-0-0--0-0-0--------------------|
   \ \ /  \ \ /  \ \ /  \ \ /  \ \ /  \ \ /  \ \ /  \ \ /

   All    my     days    were  spent by the  telephone    It


e|---------------------------------------------------------------------------|
B|-------------------------------------------1-1-1--1-1-1--------------------|
G|---------------0-0-0--0-0-0----------------0-0-0--0-0-0--------------------|
D|---------------2-2-2--2-2-2----------------2-2-2--2-2-2--------------------|
A|---------------2-2-2--2-2-2----------------3-3-3--3-3-3--------------------|
E|-2-2-2--3-3-3--0-0-0--0-0-0--2-2-2--3-3-3--0-0-0--0-0-0--------------------|
   \ \ /  \ \ /  \ \ /  \ \ /  \ \ /  \ \ /  \ \ /  \ \ /

   never         rang   and    all I needed  was a call   That


e|---------------------------------------------------------------------------|
B|-------------------------------------------1-1-1--1-1-1--------------------|
G|---------------0-0-0--0-0-0----------------0-0-0--0-0-0--------------------|
D|---------------2-2-2--2-2-2----------------2-2-2--2-2-2--------------------|
A|---------------2-2-2--2-2-2----------------3-3-3--3-3-3--------------------|
E|-2-2-2--3-3-3--0-0-0--0-0-0--2-2-2--3-3-3--0-0-0--0-0-0--------------------|
   \ \ /  \ \ /  \ \ /  \ \ /  \ \ /  \ \ /  \ \ /  \ \ /

    ne -  ver    came to the   corner of     and Amistad
                                      first

Chorus:


e|-0-0-0--0-0-0--0-0-0--0-0-0--3-3-3--3-3-3--0-0-0--0-0-0--------------------|
B|-0-0-0--0-0-0--1-1-1--1-1-1--0-0-0--0-0-0--3-3-3--3-3-3--------------------|
G|-0-0-0--0-0-0--0-0-0--0-0-0--0-0-0--0-0-0--0-0-0--0-0-0--------------------|
D|-2-2-2--2-2-2--2-2-2--2-2-2--0-0-0--0-0-0--4-4-4--4-4-4--------------------|
A|-2-2-2--2-2-2--3-3-3--3-3-3--2-2-2--2-2-2--5-5-5--5-5-5--------------------|
E|-0-0-0--0-0-0----------------3-3-3--3-3-3----------------------------------|
   \ \ /  \ \ /  \ \ /  \ \ /  \ \ /  \ \ /  \ \ /  \ \ /

   Lost and      cure          you found me, you found me
     inse -

e|-0-0-0--0-0-0--0-0-0--0-0-0--3-3-3--3-3-3--0-0-0--0-0-0--------------------|
B|-0-0-0--0-0-0--1-1-1--1-1-1--0-0-0--0-0-0--3-3-3--3-3-3--------------------|
G|-0-0-0--0-0-0--0-0-0--0-0-0--0-0-0--0-0-0--0-0-0--0-0-0--------------------|
D|-2-2-2--2-2-2--2-2-2--2-2-2--0-0-0--0-0-0--4-4-4--4-4-4--------------------|
A|-2-2-2--2-2-2--3-3-3--3-3-3--2-2-2--2-2-2--5-5-5--5-5-5--------------------|
E|-0-0-0--0-0-0----------------3-3-3--3-3-3----------------------------------|
   \ \ /  \ \ /  \ \ /  \ \ /  \ \ /  \ \ /  \ \ /  \ \ /

   Lying on the  floor         surrounded,   surrounded


e|-0-0-0--0-0-0--0-0-0--0-0-0--3-3-3--3-3-3--0-0-0--0-0-0--------------------|
B|-0-0-0--0-0-0--1-1-1--1-1-1--0-0-0--0-0-0--3-3-3--3-3-3--------------------|
G|-0-0-0--0-0-0--0-0-0--0-0-0--0-0-0--0-0-0--0-0-0--0-0-0--------------------|
D|-2-2-2--2-2-2--2-2-2--2-2-2--0-0-0--0-0-0--4-4-4--4-4-4--------------------|
A|-2-2-2--2-2-2--3-3-3--3-3-3--2-2-2--2-2-2--5-5-5--5-5-5--------------------|
E|-0-0-0--0-0-0----------------3-3-3--3-3-3----------------------------------|
   \ \ /  \ \ /  \ \ /  \ \ /  \ \ /  \ \ /  \ \ /  \ \ /

   Why’d you     wait?         Where were    Where were
    have to                         you?          you?

e|-0-0-0--0-0-0--0-0-0--0-0-0--3-3-3--3-3-3--0-0-0--0-0-0--------------------|
B|-0-0-0--0-0-0--1-1-1--1-1-1--0-0-0--0-0-0--3-3-3--3-3-3--------------------|
G|-0-0-0--0-0-0--0-0-0--0-0-0--0-0-0--0-0-0--0-0-0--0-0-0--------------------|
D|-2-2-2--2-2-2--2-2-2--2-2-2--0-0-0--0-0-0--4-4-4--4-4-4--------------------|
A|-2-2-2--2-2-2--3-3-3--3-3-3--2-2-2--2-2-2--5-5-5--5-5-5--------------------|
E|-0-0-0--0-0-0----------------3-3-3--3-3-3----------------------------------|
   \ \ /  \ \ /  \ \ /  \ \ /  \ \ /  \ \ /  \ \ /  \ \ /

   Just a        late          you found me, you found me
      little


Intro
Verse 3:

In the end everyone ends up alone
Losing her, the only one who’s ever known
Who I am, who I’m not, who I want to be
No way to know how long she will be next to me

Chorus

Bridge:


e|-0-0-0--0-0-0-----0-0-0--0-0-0---------------------|
B|-3-3-3--3-3-3-----1-1-1--1-1-1---------------------|
G|-0-0-0--0-0-0-----0-0-0--0-0-0---------------------| repeat a few times
D|-4-4-4--4-4-4-----2-2-2--2-2-2---------------------|
A|-5-5-5--5-5-5-----3-3-3--3-3-3---------------------|
E|---------------------------------------------------|
   \ \ /  \ \ /     \ \ /  \ \ /


Early morning, City breaks
I’ve been calling for years and years and years and years
And you never left me no messages
You never send me no letters
You got some kind of nerve, taking all I want


Chorus (just 1st & 2nd line):


e|-0-------------0-------------3-------------0-------------------------------|
B|-0-------------1-------------0-------------3-------------------------------|
G|-0-------------0-------------0-------------0-------------------------------|
D|-2-------------2-------------0-------------4-------------------------------|
A|-2-------------3-------------2-------------5-------------------------------|
E|-0---------------------------3---------------------------------------------|
   \             \             \             \

   Lost and      cure          you found me, you found me
     inse -

e|-0-------------0-------------3-------------0-------------------------------|
B|-0-------------1-------------0-------------3-------------------------------|
G|-0-------------0-------------0-------------0-------------------------------|
D|-2-------------2-------------0-------------4-------------------------------|
A|-2-------------3-------------2-------------5-------------------------------|
E|-0---------------------------3---------------------------------------------|
   \             \             \             \

   Lying on the  floor         Where were    Where were
                                   you?          you?

Chorus
end

| /  upstroke
| \  downstroke
===============================================================================
note: I alway get in trouble with the bridge, so if anyone has a better idea for it, it 
be nice to let me know ;o)
Suggest correction
What's this?
You can suggest a correction to this tab. Community and Mods will review your correction and vote to approve or reject it.
comments
print report bad tab
guest
You may want to rate the tab now too:
select rating
Please do not post tabs as comments. Select "correction" instead!