Oops, an error
Loading. Please wait.

You Found Me Bass

version 1
version 1

Whole song

Interactive

18,603 views 12 this week
no commentswrite comment
1 2 3 4 5
x 7
add to favorites
launch autoscroll
font size
0
reset
guitar tuner
×
Best way to learn
"You Found Me"
Autoscroll
slow
fast
+/-
esc
set tempo
stop
INTRO      x4        VERSE     x4       BRIDGE    x4    
||--------|-------- ||---------|--------||--------|--------||
||:--------|-------:||:--------|-------:||:-----2-|-------:||
||:---2----|---2---:||:--------|---2---:||:---2---|---2---:||
||-0---4--|-2---0---||---4-2-0-|-2---0--||--2-----|-2---0--||


CHORUS:
|------------|-----------|-----------|------------||
|:-----------|-----------|-----------|-----------:||
|:-----------|---------1-|-2-2-2-2-1-|-----------:||
|--4-4-4-4-2-|-0-0-0-0---|-----------|-2-2-2-2-0--||

Its real easy once you get the beat of it. Great song by The Fray enjoy.
Suggest correction
comments
print report bad tab
guest
You may want to rate the tab now too:
select rating
Wanna post a correction for this tab? Suggest correction