Oops, an error
Loading. Please wait.

You Found Me Chords

version 1
version 1
378,617 views 201 this week
9 commentsread comments
1 2 3 4 5
accurate
x 8
add to favorites
launch autoscroll
font size
0
reset
transpose
0
reset
simplify chords
display chords
guitar tuner
Autoscroll
slow
fast
+/-
esc
set tempo
stop
Help us to improve Ultimate-Guitar.com Take our survey!
×
Author
Capo
4th fret
The Fray
You Found Me
The Fray -- 2009

Tuning - Standard (E A D G B E) - Capo 4
*Chords are listed at end of song


[Intro]

Piano to guitar
e|--------------------------------------------|
B|----3------3------3------3------3------3----|
G|--0---0--0---0--0---0--0---0--0---0--0---0--|
D|--------------------------------------------|
A|--------------------------------------------|
E|--------------------------------------------|


[Verse 1]

Piano to guitar
   "I found God on the corner of First and Amistad"
e|--------------------------------------------|
B|--------------------------------------------|
G|--------------------------------------------|
D|---------------------0----------------------|
A|--0-2------------------------------------3--|
E|----------0--------------------3------------|
    
   "Where the west was all but won"
e|--------------------------------|
B|--------------------------------|
G|--------------------------------|
D|---------------------0----------|
A|--0-----2--------------------3--|
E|------------0------------3------|

   "All a-lone smoking his last cigarette" 
e|---------------------------------|
B|---------------------------------|
G|---------------------------------|
D|-------------0-------------------|
A|--0---2-----------------------3--|
E|--------0------------3-----------|
     
"I said, 'Where you been?'" He said, 'Ask anything' Where were you..."
e|----------------------------------------------------------------|
B|-------------------------------------------------------------0--|
G|-------------------------------------------------------------0--|
D|------------------------------------0------------------------2--|
A|--------0-----2----------------------------3------0-----2----2--|
E|------------------0---------------------3--------------------0--|


[Verse 1]

Guitar (* = piano notes)

A*    B*   Em
Where were you
     D/F# G         C
When everything was falling apart?
       Em
All my days
     D/F#  G      C
Were spent by the telephone
         Em
It never rang
    D/F#  G      C
And all I needed was a call
         Em
It never came
       D/F#      G         C      
To the corner of First and Amistad


[Chorus]

Em           C
Lost and insecure
G           D/F#
You found me,   you found me
Em           C
Lying on the floor
G         D/F#
Surrounded,   surrounded
Em                C
Why’d you have to wait?
G              D/F#
Where were you?    Where were you?
Em            C
Just a little late
G           D/F# G         Em
You found me,    you found me


[Interlude]

e|--------------------------------------------|
B|----3------3------3------3------3------3----|
G|--0---0--0---0--0---0--0---0--0---0--0---0--|
D|--------------------------------------------|
A|--------------------------------------------|
E|--------------------------------------------|


[Verse 2]

Same chords as V.1

But in the end
Everyone ends up alone
Losing her
The only one who’s ever known
Who I am, who I’m not, who I want to be
No way to know
How long she will be next to me


[Chorus]

Em           C
Lost and insecure
G           D/F#
You found me,   you found me
Em           C
Lying on the floor
G         D/F#
Surrounded,   surrounded
Em                C
Why’d you have to wait?
G              D/F#
Where were you?    Where were you?
Em            C
Just a little late
G           D/F# G         Em
You found me,    you found me


[Interlude]

D/F# C - 2x

Bridge Riff [2:18-2:41] - Piano to guitar
e|--2--3-----2--3-----2--3-----2--3-----|
B|--------3--------3--------3--------3--|
G|--------------------------------------|
D|--------------------------------------|
A|--------------------------------------|
E|--------------------------------------|


[Bridge]

           D/F#             C
From early morning the city breaks
          D/F#                            C
I’ve been calling for years and years and years and years
                         D/F#                           C
And you never left me no messages, you never sent me no letters
                     D/F#
You got some kind of nerve
             C
Taking all I was


[Chorus]

1st half piano followed by full band 1x through

Em           C
Lost and insecure
G           D/F#
You found me,   you found me
Em           C
Lying on the floor
G         D/F#
Surrounded,   surrounded
Em                C
Why’d you have to wait?
G              D/F#
Where were you?    Where were you?
Em            C
Just a little late
G           D/F# G         Em
You found me,    you found me


[Outro]

          Em C G D/F#
You found me
Em                C
Why’d you have to wait?
G         D/F#   G    Em
To find me,   to find me




*Chords Used
    Em  D/F#  G  C  
e|------------3-----|
B|--0----3----3--1--|
G|--0----2----0--0--|
D|--2----0----0--2--|
A|--2----x----2--3--|
E|--0----2----3-----|

I personally like playing the C as Cadd9, the Em as Em7, and the G as Gsus2,
but I just put them in their standard form throughout the tab -- play
whatever sounds best to you!
Suggest correction
comments
print report bad tab
9 comments total. Showing first comments.
+1 reply
lolzorz 10 wrote on November 29 2008, 09:32 am

THIS TAB IS RUBBISH NOT CORRECT AT ALL

greeeetz mc pussyhumper

-1 reply
TIMAY21 944 wrote on November 29 2008, 02:46 pm

seriously? it may not be 100% accurate, but "NOT CORRECT AT ALL." you seriously don't know what you're talking about.

0 reply
Feyerabend 10 wrote on December 3 2008, 08:50 am

just the chorus sound correct dude.

guest
You may want to rate the tab now too:
select rating
Wanna post a correction for this tab? Suggest correction