Oops, an error
Loading. Please wait.

You Found Me Bass Tab

version 2
version 2

Whole song

Interactive

8,584 views 3 this week
1 commentread comment
1 2 3 4 5
excellent!
x 5
add to favorites
launch autoscroll
font size
0
reset
guitar tuner
Autoscroll
slow
fast
+/-
esc
set tempo
stop
Help us to improve Ultimate-Guitar.com Take our survey!
×
Author
-----------------------------------------------------------------------
You Found Me – ThD Fray
-----------------------------------------------------------------------
  Tuning: Drop D


Verse
(0:30)		  (0:36)
G|-------------|-----------------|------------------------|
D|-------------|-----------------|------6-64--/9--------9-|
A|-------------|--4--6-----------|4--6-----------6/7-79---|
D|-4-6---4/9-2-|-6-----6-6\4/9-2-|------------------------|

G|------------4-------------|-------------|
D|-------6--46---4--/9------|-------------|
A|-4--6-----------------6/7-|-7-4444-6666-|
D|--------------------------|-------------|

Chorus (0:56)
G|-------------------------------------------------------------------------|
D|-66666669---------------------------66666669----------999999911----------|
A|----------77777779---------99997777----------77777779-----------99997777-|
D|-------------------9999997-----------------------------------------------|

(1:09)
G|-------68999999911--------------------------68999999911------------------|
D|-666666------------999999911----------666666------------999999911--------|
A|-----------------------------99997777-----------------------------9-7-11-|
D|-------------------------------------------------------------------------|

Verse (1:28)	   (1:32)			    (1:40)
G|---------------|-------------------|----------------------------|
D|---------------|-------------------|--------6-------------------|
A|---------------|-4-6---------------|-4-6------------------------|
D|-6646-4/9-2212-|-----6646-4/9-2212-|-----664-464-4444/9999-2212-|

G|----------------------------|-------------|
D|--------6-------------------|-------------|
A|-4-6------------------------|-7-4444-6666-|
D|-----664-464-4444/9999-2212-|-------------|

Chorus (1:53)									[11’s]
G|-----------------------------------------------------------------1111111111111111-|
D|-66666669---------------------------66666669----------9999999h11-1111111111111111-|
A|----------77777779---------99997777----------77777779-----------------------------|
D|-------------------9999997--------------------------------------------------------|

(2:06)
G|-------68999999911--------------------------68999999911------------------|
D|-666666------------999999911----------666666------------9999999h11-------|
A|-----------------------------99997777-----------------------------11-7-2-|
D|-------------------------------------------------------------------------|

Bridge (2:18)
G|---------------------------------------------------------------------|
D|---------------------------------------------------------------------|
A|-----------------------------------------------------------------9-9-|
D|-444444444666666666-2222222222222222-4444444466666666-14-13-11-9-----|

G|---------------------------------------------------------------------11-|
D|------------------------------------------------------------------------|
A|------------------------------------------------------------------------|
D|-444444444666666666-2222222222222222-4444444466666666-14-13-11-9-9h11---|

G|--------------------------------------------------------------------------|
D|--------------------------------------------------------------------------|
A|------------------------------------------------------7777777777777777-11-|
D|-444444444666666666-2222222222222222-4444444466666666---------------------|

Chorus (3:09)										[11’s]
G|-----------------------------------------------------------------1111111111111111-|
D|-66666669---------------------------66666669----------9999999h11-1111111111111111-|
A|----------77777779---------99997777----------77777779-----------------------------|
D|-------------------9999997--------------------------------------------------------|

G|-------68999999911--------------------------68999999911------------------|
D|-666666------------999999911----------666666------------9999999h11-------|
A|-----------------------------99997777-----------------------------11-9-7-|
D|-------------------------------------------------------------------------|

Outro (3:35)                      [11’s!]
G|-----4h64--99998888---------------11111111-|
D|-6-64----4----------999999911-8888---------|
A|-------------------------------------------|
D|-------------------------------------------|

G|-----4h64--99998888------------------||
D|-6-64----4----------999999911-8------||
A|--------------------------------9-11-||
D|-------------------------------------||
Suggest correction
What's this?
You can suggest a correction to this tab. Community and Mods will review your correction and vote to approve or reject it.
comments
print report bad tab
1 comment total.
0 reply
AlexD97 572 wrote on September 9 2010, 11:50 am

You should type where you should let the note ring with a ~, but otherwise, it's good.

guest
You may want to rate the tab now too:
select rating
Please do not post tabs as comments. Select "correction" instead!