Oops, an error
Loading. Please wait.

Its Only Alcohol Tab

186 views 1 this week
no commentswrite comment
1 2 3 4 5
2 more votes to show rating
add to favorites
launch autoscroll
font size
0
reset
how to read this tab
guitar tuner
Autoscroll
slow
fast
+/-
esc
set tempo
stop
Help us to improve Ultimate-Guitar.com Take our survey!
×
Author
Tabbers playing skills
beginner
-------------------------------------------------------------------------------
It's Only Alcohol - The Freeze
This Is Boston Not L.A.
-------------------------------------------------------------------------------
Tabbed by: axeslash
Email: holmzito@yahoo.com

Tuning:

e|---------------------------------|      e|-----------------|
B|---------------------------------|      B|-----------------|
G|-----------------6-6-6-6-6-6-6-6-|      G|-----------------|
D|-7-7-7-7-4-4-4-4-4-4-4-4-4-4-4-4-|      D|-3-3-3-3-3-3-5---|
A|-5-5-5-5-2-2-2-2-----------------|      A|-1-1-1-1-1-1-3-5-|
E|---------------------------------| x12  E|---------------3-| x3

e|-----------------------------------|  e|-----------------------------------|
B|-----------------------------------|  B|-----------------------------------|
G|-----------------------------------|  G|-----------------------------------|
D|-3-3-3-3-3-3-5---------------------|  D|-3-3-3-3-3-3-5-5-------------------|
A|-1-1-1-1-1-1-3-5-X-X-X-X-X-X-X-X-X-|  A|-1-1-1-1-1-1-3-3-5-5-5-5-5-5-5-5-5-|
E|---------------3-X-X-X-X-X-X-X-X-X-|  E|-----------------3-3-3-3-3-3-3-3-3-| x8

e|-----------------|     e|---------------------------------|
B|-----------------|     B|---------------------------------|
G|-----------------|     G|-----------------6-6-6-6-6-6-6-6-|
D|-5-5-5-5-7-7-7-7-|     D|-7-7-7-7-4-4-4-4-4-4-4-4-4-4-4-4-|
A|-3-3-3-3-5-5-5-5-|     A|-5-5-5-5-2-2-2-2-----------------|
E|-----------------| x4  E|---------------------------------| x12

e|-----------------|     e|-----------------------------------|
B|-----------------|     B|-----------------------------------|
G|-----------------|     G|-----------------------------------|
D|-3-3-3-3-3-3-5---|     D|-3-3-3-3-3-3-5---------------------|
A|-1-1-1-1-1-1-3-5-|     A|-1-1-1-1-1-1-3-5-X-X-X-X-X-X-X-X-X-|
E|---------------3-| x3  E|---------------3-X-X-X-X-X-X-X-X-X-|

e|-----------------------------------|     e|-----------------|
B|-----------------------------------|     B|-----------------|
G|-----------------------------------|     G|-----------------|
D|-3-3-3-3-3-3-5-5-------------------|     D|-5-5-5-5-7-7-7-7-|
A|-1-1-1-1-1-1-3-3-5-5-5-5-5-5-5-5-5-|     A|-3-3-3-3-5-5-5-5-|
E|-----------------3-3-3-3-3-3-3-3-3-| x8  E|-----------------| x4


| /  slide up
| \  slide down
| h  hammer-on
| p  pull-off
| ~  vibrato
| +  harmonic
| x  Mute note
===============================================================================
Suggest correction
Give kudos to tab author, rate the tab!
1 2 3 4 5
comments
print report bad tab
guest
You may want to rate the tab now too:
select rating
Wanna post a correction for this tab? Suggest correction