Oops, an error
Loading. Please wait.

Talking Bombs Bass Tab

893 views 3 this week
no commentswrite comment
1 2 3 4 5
please rate
add to favorites
launch autoscroll
font size
0
reset
guitar tuner
Autoscroll
slow
fast
+/-
esc
set tempo
stop
Help us to improve Ultimate-Guitar.com Take our survey!
×
Difficulty
novice
Artist: The Freeze
Song:   “Talking Bombs”

Standard Tuning


 Intro/ Transition:
G|-----
D|-----
A|-----
E|-2*--

 Pre-Verse:                                                 [x4]
G|--------------------------------------------------------------|
D|-4--4-4-4-4-4-4-----------------------------------------------|
A|----------------5--5-5-5-5-5-5----------------7--7-7-7-7-7-7--|
E|-------------------------------5--5-5-5-5-5-5-----------------|

 Verse:                                                  [x8]
G|----------------------------------------------------------|
D|-4--4-4-4-4-4---------------------------------------------|
A|--------------9-7--7-7-7-7-7-9------------9--9-9-9-9-9-9--|
E|-------------------------------5--5-5-5-5-----------------|

 Chorus:
G|--------------------------------------------------------------|
D|--------------------------------------------------------------|
A|-5--5-5-5-5-5-5----------------2--2-2-2-2-2-2-----------------|
E|----------------5--5-5-5-5-5-5----------------2--2-2-2-2-2-2--|

                                                                [x2]
G|-----------------------------------------------------------------|
D|-----------------------------------------------------------------|
A|-0--0-0-0-0-0-0-2--2-2-2-2-2-2-----------------------------------|
E|-------------------------------2--2-2-2-2-2-2-2-2-2-2-2-2-2-2-2--|


G|------------------------------------------------------------------|
D|--------------------------------4--4-4-4-4-4-4-4-4-4-4-4-4-4-4-4--|
A|-0--0-0-0-0-0-0--2--2-2-2-2-2-2-----------------------------------|
E|------------------------------------------------------------------|

______________
SYMBOLS:

*= STRUM
______________
ORDER:

-INTRO
-PRE-VERSE
-VERSE
-TRANSITION
-CHORUS
-PRE-VERSE
-VERSE
-TRANSITION
-CHORUS
-PRE-VERSE/ OUTRO
Suggest correction
Give kudos to tab author, rate the tab!
1 2 3 4 5
comments
print report bad tab
guest
You may want to rate the tab now too:
select rating
Wanna post a correction for this tab? Suggest correction