Oops, an error
Loading. Please wait.

Time Bomb Tab

319 views 1 this week
no commentswrite comment
1 2 3 4 5
2 more votes to show rating
add to favorites
launch autoscroll
font size
0
reset
how to read this tab
guitar tuner
Autoscroll
slow
fast
+/-
esc
set tempo
stop
Help us to improve Ultimate-Guitar.com Take our survey!
×
Author
Tabbers playing skills
beginner
-------------------------------------------------------------------------------
Time Bomb - The Freee
This Is Boston Not L.A.
-------------------------------------------------------------------------------
Tabbed by: axeslash
Email: holmzito@yahoo.com

Tuning: Standard

e|-10-----10^----10-----10^-|     e|----------------------------|
B|----12------------12------|     B|----------------------------|
G|--------------------------|     G|----------------------------|
D|--------------------------|     D|-----------------5-----4--7-|
A|--------------------------|     A|-7-7-7-7-7-7-7-7-3--5--2--5-|
E|--------------------------| x2  E|-5-5-5-5-5-5-5-5----3-------| x12

e|---------------------|  e|----------------------------|
B|---------------------|  B|----------------------------|
G|---------------------|  G|----------------------------|
D|-5------5-3--3--3--3-|  D|-----------------5-----4--7-|
A|-3------3-1--1--1--1-|  A|-7-7-7-7-7-7-7-7-3--5--2--5-|
E|---------------------|  E|-5-5-5-5-5-5-5-5----3-------| x2

e|---------------------|  e|-10-----10^----10-----10^-|
B|---------------------|  B|----12------------12------|
G|---------------------|  G|--------------------------|
D|-5------5-3--3--3--3-|  D|--------------------------|
A|-3------3-1--1--1--1-|  A|--------------------------| 
E|---------------------|  E|--------------------------| x3

e|----------------------------|     e|---------------------|
B|----------------------------|     B|---------------------|
G|----------------------------|     G|---------------------|
D|-----------------5-----4--7-|     D|-5------5-3--3--3--3-|
A|-7-7-7-7-7-7-7-7-3--5--2--5-|     A|-3------3-1--1--1--1-|
E|-5-5-5-5-5-5-5-5----3-------| x8  E|---------------------|

e|----------------------------|     e|---------------------|
B|----------------------------|     B|---------------------|
G|----------------------------|     G|---------------------|
D|-----------------5-----4--7-|     D|-5------5-3--3--3--3-|
A|-7-7-7-7-7-7-7-7-3--5--2--5-|     A|-3------3-1--1--1--1-|
E|-5-5-5-5-5-5-5-5----3-------| x2  E|---------------------|

e|----------------------------|     e|-9-X-9-X-9-X-9-X-9-|
B|----------------------------|     B|-9-X-9-X-9-X-9-X-9-|
G|----------------------------|     G|-9-X-9-X-9-X-9-x-9-|
D|-----------------5-----4--7-|     D|-(Harmonics)-------|
A|-7-7-7-7-7-7-7-7-3--5--2--5-|     A|-------------------|
E|-5-5-5-5-5-5-5-5----3-------| x2  E|-------------------|

So after playing that last chord a few times it slides up and down, mostly random,
and leads into the song "This Is Boston Not L.A."  It's just random feedback so
do whatever you want.


| /  slide up
| \  slide down
| h  hammer-on
| p  pull-off
| ~  vibrato
| +  harmonic
| x  Mute note
===============================================================================
Suggest correction
Give kudos to tab author, rate the tab!
1 2 3 4 5
comments
print report bad tab
guest
You may want to rate the tab now too:
select rating
Wanna post a correction for this tab? Suggest correction