Oops, an error
Loading. Please wait.

Trouble If You Hide Tab

316 views 1 this week
no commentswrite comment
1 2 3 4 5
please rate
add to favorites
launch autoscroll
font size
0
reset
how to read this tab
guitar tuner
Autoscroll
slow
fast
+/-
esc
set tempo
stop
Help us to improve Ultimate-Guitar.com Take our survey!
×
Author
Tabbers playing skills
axeslash 3,485
beginner
-------------------------------------------------------------------------------
Trouble If You Hide - The Freeze
This Is Boston Not L.A.
-------------------------------------------------------------------------------
Tabbed by: axeslash
Email: holmzito@yahoo.com

Tuning: Both guitars standard

e|---------------------------------|     e|---------------------------------|
B|---------------------------------|     B|---------------------------------|
G|---------------------------------|     G|---------------------------------|
D|-9-9-9-9-9-9-9-9---------7-7-7-7-|     D|-9-9-9-9-9-9-9-9---------7-7-7-7-|
A|-7-7-7-7-7-7-7-7-5-5-5-5-5-5-5-5-|     A|-7-7-7-7-7-7-7-7-5-5-5-5-5-5-5-5-|
E|-----------------3-3-3-3---------| x2  E|[X-X-X-X-X-X-X-X]3-3-3-3---------| x4

e|-----------------|      e|---------------------------------|
B|-----------------|      B|---------------------------------| 
G|-----------------|      G|---------------------------------|
D|-4-4-----2-2-----|      D|-9-9-9-9-9-9-9-9---------7-7-7-7-|
A|-2-2-4-4-0-0-2-2-|      A|-7-7-7-7-7-7-7-7-5-5-5-5-5-5-5-5-|
E|-----2-2-----0-0-| x12  E|-----------------3-3-3-3---------| x2

e|---------------------------------|     e|-----------------|
B|---------------------------------|     B|-----------------|
G|---------------------------------|     G|-----------------|
D|-9-9-9-9-9-9-9-9---------7-7-7-7-|     D|-4-4-----2-2-----|
A|-7-7-7-7-7-7-7-7-5-5-5-5-5-5-5-5-|     A|-2-2-4-4-0-0-2-2-|
E|[X-X-X-X-X-X-X-X]3-3-3-3---------| x4  E|-----2-2-----0-0-| x12

Guitar 2:
e|------------------------------|
B|-9----9-7-------------7----8--|
G|----------9--------9----------|
D|------------10----------------|
A|------------------------------|
E|------------------------------|
Guitar 1:
e|---------------------------------|
B|---------------------------------|
G|---------------------------------|
D|-9-9-9-9-9-9-9-9---------7-7-7-7-|
A|-7-7-7-7-7-7-7-7-5-5-5-5-5-5-5-5-|
E|-----------------3-3-3-3---------|

Guitar 2:
e|------------------------------10-10-10-10-10-10-10-10-|
B|9^----9-9-9-7-8-8-8-8-8-8-8-8-10-10-10-10-10-10-10-10-|
G|9^----9-9-9-7-7-7-7-7-7-7-7-7-------------------------|
D|------------------------------------------------------|
A|------------------------------------------------------|
E|------------------------------------------------------|
Guitar 1:
e|---------------------------------|
B|---------------------------------|
G|---------------------------------|
D|-9-9-9-9-9-9-9-9---------7-7-7-7-|
A|-7-7-7-7-7-7-7-7-5-5-5-5-5-5-5-5-|
E|-----------------3-3-3-3---------|

Guitar 2:
e|-12-12-12-12-12-12-12-12-15------------------------------------10-10-10-10-10-10-10-10|
B|-12-12-12-12-12-12-12-12-15--15-15-15-15-15-15-8-8-8-8-8-8-8-8-10-10-10-10-10-10-10-10|
G|-----------------------------15-15-15-15-15-15-7-7-7-7-7-7-7-7------------------------|
D|--------------------------------------------------------------------------------------|
A|--------------------------------------------------------------------------------------|
E|--------------------------------------------------------------------------------------|
Guitar 1:
e|---------------------------------------------|
B|---------------------------------------------|
G|---------------------------------------------|
D|-9-9-9--9-9-9--9-9-9--9-9-9----------7-7-7-7-|
A|-7-7-7--7-7-7--7-7-7--7-7-7--5-5-5-5-5-5-5-5-|
E|[X-X]--[X-X]--[X-X]--[X-X]---3-3-3-3---------|

Guitar 2:
e|-12-12-12-12-12-12-12-12-15----------------------------10-10-10-10-10-10-10-10-|
B|-12-12-12-12-12-12-12-12-15--15\\\\\\\-8-8-8-8-8-8-8-8-10-10-10-10-10-10-10-10-|
G|-----------------------------15\\\\\\\-7-7-7-7-7-7-7-7-------------------------|
D|-------------------------------------------------------------------------------|
A|-------------------------------------------------------------------------------|
E|-------------------------------------------------------------------------------|
Guitar 1:
e|---------------------------------------------|
B|---------------------------------------------|
G|---------------------------------------------|
D|-9-9-9--9-9-9--9-9-9--9-9-9----------7-7-7-7-|
A|-7-7-7--7-7-7--7-7-7--7-7-7--5-5-5-5-5-5-5-5-|
E|[X-X]--[X-X]--[X-X]--[X-X]---3-3-3-3---------|

Guitar 2:
e|-12\\\\-0-0-|
B|-12\\\\-0-0-|
G|--------0-0-|
D|------------|
A|------------|
E|------------|
Guitar 1:
e|-----------------|
B|-----------------|
G|-----------------|
D|-4-4-----2-2-----|
A|-2-2-4-4-0-0-2-2-|
E|-----2-2-----0-0-|

Guitar 1:
e|-----------------|
B|-----------------|
G|-----------------|
D|-4-4-----2-2-----|
A|-2-2-4-4-0-0-2-2-|
E|-----2-2-----0-0-|

Guitar 1:
e|-----------------|
B|-----------------|
G|-----------------|
D|-4-4-----2-2-----|
A|-2-2-4-4-0-0-2-2-|
E|-----2-2-----0-0-|
guitar 2:
e|-7---6---5---4---|
B|-----------------|
G|-----------------|
D|-----------------|
A|-----------------|
E|-----------------| x10

Guitar 1:
e|-----------------|      e|-------------|    e|----------------|
B|-----------------|      B|-------------|    B|----------------|
G|-----------------|      G|-------------|    G|----------------|
D|-4-4-----2-2-----|      D|-4-----2-----|    D|-4-----2-----4--|
A|-2-2-4-4-0-0-2-2-|      A|-2--4--0--2--|    A|-2--4--0--2--2--|
E|-----2-2-----0-0-| x10  E|----2-----0--|x3  E|----2-----0-----|

| [x] palm mute
|  /  slide up
|  \  slide down
|  h  hammer-on
|  p  pull-off
|  ~  vibrato
|  +  harmonic
|  x  Mute note
===============================================================================
Suggest correction
What's this?
You can suggest a correction to this tab. Community and Mods will review your correction and vote to approve or reject it.
comments
We did not receive enough feedback on this tab! Please rate:
print report bad tab
1 2 3 4 5
guest
You may want to rate the tab now too:
select rating
Please do not post tabs as comments. Select "correction" instead!