Oops, an error
Loading. Please wait.

Kids bass

1,027 views 12 this week
2 commentsread comments
1 2 3 4 5
x 3
add to favorites
×
Save as Personal and add changes to this tab that will be seen only by you. Learn more ›
×
You can save this tab as Personal to edit and correct it or add notes. All changes will be seen only by you. Learn more »
launch autoscroll
font size
0
reset
guitar tuner
edit
Autoscroll
slow
fast
+/-
esc
set tempo
stop
Author
The Frights
“Kids”
You Are Going To Hate This (2016)

Standard Tuning (EADG)


Intro:
(0:00-0:12)
  1  2  3  4    1  2  3  4   1  2  3  4    1  2  3  4    
|-------------|------------|-------------|-------------|
|-------------|------------|-------------|-------------|
|-------------|------------|-------------|-------------|
|-5~~~~~~--4--|-2----------|-10-------9--|-5-----------|
                                                     
  1  2  3  4    1  2  3  4   1  2  3  4    1  2  3  4    
|-------------|------------|-------------|-------------|
|-------------|------------|-------------|-------------|
|-------------|------------|-------------|-------------|
|-5~~~~~~--4--|-2----------|-10----------|-------------|
 

Verse:
(0:13-0:34)
  1  ^  2  ^  3  ^  4  ^    1  ^  2  ^  3  ^  4  ^    
|-------------------------|-------------------------|\
|-------------------------|-------------------------| \
|-------------------------|-------------------------|  \
|-5-----5--5-----5--4-----|-2-----2--2-----2---2////|   |
                                                        |
  1  ^  2  ^  3  ^  4  ^    1  ^  2  ^  3  ^  4  ^    (x4)
|-------------------------|-------------------------|   |
|-------------------------|-------------------------|  /
|-------------------------|-------------------------| /
|/10----10-10----10-10\\\\|-5-----5--5-----5--5-----|/


Chorus:
(0:35-0:57)
  1  ^  2  ^  3  ^  4  ^    1  ^  2  ^  3  ^  4  ^    
|-------------------------|-------------------------|
|-------------------------|-------------------------|
|-------------------------|-------------------------| 
|-5-----5--5-----5--4-----|-2-----2--2-----2---2////|  
                                                        
  1  ^  2  ^  3  ^  4  ^    1  ^  2  ^  3  ^  4  ^    
|-------------------------|-------------------------|   
|-------------------------|-------------------------|  
|-------------------------|-------------------------| 
|/10----10-10----10-10\\\\|-5-----5--5-----5--5-----|

  1  ^  2  ^  3  ^  4  ^    1  ^  2  ^  3  ^  4  ^    
|-------------------------|-------------------------|
|-------------------------|-------------------------|
|-------------------------|-------------------------|
|-5-----5--5-----5--4-----|-2-----2--2-----2---2////|   
                                                        
  1  ^  2  ^  3  ^  4  ^    1  ^  2  ^  3  ^  4  ^    
|-------------------------|-------------------------|
|-------------------------|-------------------------|
|-------------------------|-9--9--------------------|
|/10----10-10----10-10----|-------12-12-10-10-9--9--|

  1  ^  2  ^  3  ^  4  ^    1  ^  2  ^  3  ^  4  ^    
|-------------------------|-------------------------|\
|-------------------------|-------------------------| \
|-------------------------|-------------------------|  \
|-5-----5--5-----5--4-----|-2-----2--2-----2---2////|   |
                                                        |
  1  ^  2  ^  3  ^  4  ^    1  ^  2  ^  3  ^  4  ^    (x2)
|-------------------------|-------------------------|   |
|-------------------------|-------------------------|  /
|-------------------------|-------------------------| /
|/10----10-10----10-10\\\\|-5-----5--5-----5--5-----|/
        

Post-Chorus:
(0:58-1:08)
  1  ^  2  ^  3  ^  4  ^    1  ^  2  ^  3  ^  4  ^    
|-------------------------|-------------------------|
|-------------------------|-------------------------|
|-------------------------|-4-----4--4-----4---7----| 
|-5-----5--5-----5--7-----|-------------------------|  
                                                        
  1  ^  2  ^  3  ^  4  ^    1  ^  2  ^  3  ^  4  ^    
|-------------------------|-------------------------|   
|-------------------------|-------------------------|  
|-5-----5--5-----5--7-----|-------------------------| 
|-------------------------|-5-----5--5-----5--5-----|

  1  ^  2  ^  3  ^  4  ^    1  ^  2  ^  3  ^  4  ^    
|-------------------------|-------------------------|
|-------------------------|-------------------------|
|-------------------------|-------------------------|
|-5-----5--5-----5--4-----|-2-----2--2-----2---2////|   
                                                        
  1  ^  2  ^  3  ^  4  ^    1  ^  2  ^  3  ^  4  ^    
|-------------------------|-------------------------|
|-------------------------|-------------------------|
|-------------------------|-------------------------|
|/10----10-10----10-10\\\\|-5-----5--5-----5--5-----|


Verse 2:
(1:09-1:31)
  1  ^  2  ^  3  ^  4  ^    1  ^  2  ^  3  ^  4  ^    
|-------------------------|-------------------------|
|-------------------------|-------------------------|
|-------------------------|-------------------------| 
|-5-----5--5-----5--4-----|-2-----2--2-----2---2////|  
                                                        
  1  ^  2  ^  3  ^  4  ^    1  ^  2  ^  3  ^  4  ^    
|-------------------------|-------------------------|   
|-------------------------|-------------------------|  
|-------------------------|-------------------------| 
|/10----10-10----10-10\\\\|-5-----5--5-----5--5-----|

  1  ^  2  ^  3  ^  4  ^    1  ^  2  ^  3  ^  4  ^    
|-------------------------|-------------------------|
|-------------------------|-------------------------|
|-------------------------|-------------------------|
|-5-----5--5-----5--4-----|-2-----2--2-----2---2////|   
                                                        
  1  ^  2  ^  3  ^  4  ^    1  ^  2  ^  3  ^  4  ^    
|-------------------------|-------------------------|
|-------------------------|-------------------------|
|-------------------------|-9--9--------------------|
|/10----10-10----10-10----|-------12-12-10-10-9--9--|

  1  ^  2  ^  3  ^  4  ^    1  ^  2  ^  3  ^  4  ^    
|-------------------------|-------------------------|
|-------------------------|-------------------------|
|-------------------------|-------------------------| 
|-5-----5--5-----5--4-----|-2-----2--2-----2---2////|  
                                                        
  1  ^  2  ^  3  ^  4  ^    1  ^  2  ^  3  ^  4  ^    
|-------------------------|-------------------------|   
|-------------------------|-------------------------|  
|-------------------------|-------------------------| 
|/10----10-10----10-10\\\\|-5-----5--5-----5--5-----|

  1  ^  2  ^  3  ^  4  ^    1  ^  2  ^  3  ^  4  ^    
|-------------------------|-------------------------|
|-------------------------|-------------------------|
|-------------------------|-------------------------|
|-5-----5--4-----3--2\\\\\|-------------------------|   
                                                        
  1  ^  2  ^  3  ^  4  ^    1  ^  2  ^  3  ^  4  ^    
|-------------------------|-------------------------|
|-------------------------|-------------------------|
|-------------------------|-------------------------|
|-------------------------|-5~~~--5~~~--5~~~--5~~~--|


Chorus 2:
(1:32-1:54)
  1  ^  2  ^  3  ^  4  ^    1  ^  2  ^  3  ^  4  ^    
|-------------------------|-------------------------|
|-------------------------|-------------------------|
|-------------------------|-------------------------| 
|-5-----5--5-----5--4-----|-2-----2--2-----2---2////|  
                                                        
  1  ^  2  ^  3  ^  4  ^    1  ^  2  ^  3  ^  4  ^    
|-------------------------|-------------------------|   
|-------------------------|-------------------------|  
|-------------------------|-------------------------| 
|/10----10-10----10-10\\\\|-5-----5--5-----5--5-----|

  1  ^  2  ^  3  ^  4  ^    1  ^  2  ^  3  ^  4  ^    
|-------------------------|-------------------------|
|-------------------------|-------------------------|
|-------------------------|-------------------------|
|-5-----5--5-----5--4-----|-2-----2--2-----2---2////|   
                                                        
  1  ^  2  ^  3  ^  4  ^    1  ^  2  ^  3  ^  4  ^    
|-------------------------|-------------------------|
|-------------------------|-------------------------|
|-------------------------|-9--9--------------------|
|/10----10-10----10-10----|-------12-12-10-10-9--9--|

  1  ^  2  ^  3  ^  4  ^    1  ^  2  ^  3  ^  4  ^    
|-------------------------|-------------------------|
|-------------------------|-------------------------|
|-------------------------|-------------------------| 
|-5-----5--5-----5--4-----|-2-----2--2-----2---2////|  
                                                        
  1  ^  2  ^  3  ^  4  ^    1  ^  2  ^  3  ^  4  ^    
|-------------------------|-------------------------|   
|-------------------------|-------------------------|  
|-------------------------|-------------------------| 
|/10----10-10----10-10\\\\|-5-----5--5-----5--5-----|

  1  ^  2  ^  3  ^  4  ^    1  ^  2  ^  3  ^  4  ^    
|-------------------------|-------------------------|
|-------------------------|-------------------------|
|-------------------------|-------------------------|
|-5-----5--5-----5--4-----|-2-----2--2-----2---2////|
                                                        
  1  ^  2  ^  3  ^  4  ^    1  ^  2  ^  3  ^  4  ^
|-------------------------|-------------------------|
|-------------------------|-------------------------|
|-------------------------|-------------------------|
|/10----------------------|-------------------------|


Break:
(1:55-2:00)
  1  ^  2  ^  3  ^  4  ^    1  ^  2  ^  3  ^  4  ^ 
|-------------------------|-------------------------|
|-------------------------|-------------------------|
|-------------------------|-------------------------|
|-5-----5-----5-----5-----|-5-----5-----5-----5-----|

  1  ^  2  ^  3  ^  4  ^    1  ^  2  ^  3  ^  4  ^ 
|-------------------------|-------------------------|
|-------------------------|-------------------------|
|-------------------------|-------------------------|
|-5-----5-----5-----5-----|-5--5--5--5--5--5--5--5--|
        

Final Chorus:
(2:01-2:54)
  1  ^  2  ^  3  ^  4  ^    1  ^  2  ^  3  ^  4  ^    
|-------------------------|-------------------------|\
|-------------------------|-------------------------| \
|-------------------------|-------------------------|  \
|-5-----5--5-----5--4-----|-2-----2--2-----2---2////|   |
                                                        |
  1  ^  2  ^  3  ^  4  ^    1  ^  2  ^  3  ^  4  ^    (x4)
|-------------------------|-------------------------|   |
|-------------------------|-------------------------|  /
|-------------------------|-------------------------| /
|/10----10-10----10-10\\\\|-5-----5--5-----5--5-----|/

  1  ^  2  ^  3  ^  4  ^    1  ^  2  ^  3  ^  4  ^    
|-------------------------|-------------------------|
|-------------------------|-------------------------|
|-------------------------|-------------------------|
|-5-----5--5-----5--4-----|-2-----2--2-----2---2////|
                                                    
  1  ^  2  ^  3  ^  4  ^    1  ^  2  ^  3  ^  4  ^
|-------------------------|-------------------------|
|-------------------------|-------------------------|
|-------------------------|-9--9--------------------|
|/10----10-10----10-10----|-------12-12-10-10-9--9--|

  1  ^  2  ^  3  ^  4  ^    1  ^  2  ^  3  ^  4  ^    
|-------------------------|-------------------------|
|-------------------------|-------------------------|
|-------------------------|-------------------------|
|-5-----5--5-----5--4-----|-2-----2--2-----2---2////|
                                                    
  1  ^  2  ^  3  ^  4  ^    1  ^  2  ^  3  ^  4  ^
|-------------------------|-------------------------|
|-------------------------|-------------------------|
|-------------------------|-------------4--4--5--5--|
|/10----10-10----10-10\\\\|-5--5--7--7--------------|

  1  ^  2  ^  3  ^  4  ^    1  ^  2  ^  3  ^  4  ^    
|-------------------------|-------------------------|
|-------------------------|-------------------------|
|-------------------------|-------------------------|
|-5-----5--5-----5--4-----|-2-----2--2-----2---2////|
                                                    
  1  ^  2  ^  3  ^  4  ^    1  ^  2  ^  3  ^  4  ^
|-------------------------|-------------------------|
|-------------------------|-------------------------|
|-------------------------|-------------------------|
|/10----10-10----10-10\\\\|-5-----5--5-----5--5-----|

  1  ^  2  ^  3  ^  4  ^    1  ^  2  ^  3  ^  4  ^    
|-------------------------|-------------------------|
|-------------------------|-------------------------|
|-------------------------|-------------------------|
|-5-----5--5-----5--4-----|-2-----2--2-----2---2////|
                                                    
  1  ^  2  ^  3  ^  4  ^    1  ^  2  ^  3  ^  4  ^
|-------------------------|-------------------------|
|-------------------------|-------------------------|
|----(tempo slows down)---|-------------------------|
|/10~~~~~~~~~~~~~~~~~~----|-5~~~~~~~~~~~~~~~~~~~----|

~Jeyqwop

            
            
Suggest correction
Creating personal tab
Creating personal tab
You can edit any tab online and save it as your Personal.

You can edit, replace or remove any tab part or add personal notes – all changes will be seen only by you.

Personal tabs can be accessed anytime from any device, even offline.
Learn more »
Give kudos to tab author, rate the tab!
1 2 3 4 5
comments
print report bad tab
2 comments total.
0 reply
joshsb17 66 Mar 10, 2017 09:57 PM

Once again like your other Frights tab, it's pointless to go to the 10th fret on the E string when you can go to the 5th on the A string easier and have it be a lot easier to play.

guest
You may want to rate the tab now too:
select rating
Wanna post a correction for this tab? Suggest correction