Oops, an error
Loading. Please wait.

Puppy Knuckles bass

328 views 9 this week
no commentswrite comment
1 2 3 4 5
3 more votes to show rating
add to favorites
×
Save as Personal and add changes to this tab that will be seen only by you. Learn more ›
×
You can save this tab as Personal to edit and correct it or add notes. All changes will be seen only by you. Learn more »
launch autoscroll
font size
0
reset
guitar tuner
edit
Autoscroll
slow
fast
+/-
esc
set tempo
stop
Author
The Frights
“Puppy Knuckles”
You Are Going To Hate This (2016)

Standard Tuning (EADG)

Another really easy song, so here are 
all the parts!
~Jeyqwop


[Main Riff]
(0:39-0:52)
   1  2  3  4    1  2  3  4    1  2  3  4    1  2  3  4
G|-------------|-------------|-------------|-------------|
D|-------------|-------------|-------------|-------------|
A|-------------|----------4--|-------------|-----------4-|
E|-5-----------|-2-----------|-5-----------|-2-----------|

   1  2  3  4    1  2  3  4
G|-------------|-------------|
D|-------------|-------------|
A|-------------|-------------|
E|-5-----------|-2-----------|


[Chorus] (x2)
(0:52-1:14)
   1  2  3  4    1  2  3  4    1  2  3  4    1  2  3  4
G|-------------|-------------|-------------|-------------|
D|-------------|-------------|-------------|-------------|
A|-------------|-------------|-------------|-------------|
E|-5-----------|-2--------0--|-5-----------|-2-----------|

   1  2  3  4    1  2  3  4    1  2  3  4    1  2  3  4
G|-------------|-------------|-------------|-------------|
D|-------------|-------------|-------------|-------------|
A|-------------|-------------|-------------|-----------4-|
E|-5-----------|-2--------0--|-5-----------|-2-----------|


[Post-Chorus]
(1:14-1:23)
   1  2  3  4    1  2  3  4    1  2  3  4    1  2  3  4
G|-------------|-------------|-------------|-------------|
D|-------------|-------------|-------------|-------------|
A|----------4--|----------4--|----------4--|----------4--|
E|-5-----------|-2-----------|-5-----------|-2-----------|

   1  2  3  4    1  2  3  4    1  2  3  4    1  2  3  4
G|-------------|-------------|-------------|-------------|
D|-------------|-------------|-------------|-------------|
A|----------4--|----------4--|----------4--|-------------|
E|-5-----------|-2-----------|-5-----------|-2--------0--|


[Main Riff] (x4)
(1:23-2:00)
   1  2  3  4    1  2  3  4    1  2  3  4    1  2  3  4
G|-------------|-------------|-------------|-------------|
D|-------------|-------------|-------------|-------------|
A|-------------|----------4--|-------------|-----------4-|
E|-5-----------|-2-----------|-5-----------|-2-----------|


[Chorus Riff] (x2)
(2:01-2:44)

[Drums Only]
(2:44-2:49)

[Chorus Riff} (x2)
(2:49-3:34)

The whole song is basically just these
parts repeated and slightly varied.

            
            
Suggest correction
Creating personal tab
Creating personal tab
You can edit any tab online and save it as your Personal.

You can edit, replace or remove any tab part or add personal notes – all changes will be seen only by you.

Personal tabs can be accessed anytime from any device, even offline.
Learn more »
Give kudos to tab author, rate the tab!
1 2 3 4 5
comments
print report bad tab
guest
You may want to rate the tab now too:
select rating
Wanna post a correction for this tab? Suggest correction