Oops, an error
Loading. Please wait.

Wow Ok Cool Tab

46 views 3 this week
no commentswrite comment
1 2 3 4 5
3 more votes to show rating
add to favorites
launch autoscroll
font size
0
reset
how to read this tab
guitar tuner
Autoscroll
slow
fast
+/-
esc
set tempo
stop
Help us to improve Ultimate-Guitar.com Take our survey!
×
Author
Difficulty
[Intro]

e|---------------------------------------------------------------------------|
B|---------------------------------------------------------------------------|
G|---------------------------------------------------------------------------|
D|---------------------------------------------------------------------------|  X4
A|---------------------------------------------------------------------------|
E|-----4/5-5-5---------4/5-5-5---------4/5-5-5------8-8-8-8-8----------------|
             x               x               x    


e|---------------------------------------------------------------------------|
B|---------------------------------------------------------------------------|
G|---------------------------------------------------------------------------|
D|---------------------------------------------------------------------------|  X4
A|---------------------------------------------------------------------------|
E|----4/5-5-5-5-5-5-4/5-5-5-5-5-5-4/5-5-5-5-5-5--8-8-8-8-8-8-----------------|




e|--4-4-5-5-5-5-4-4-5-5-5-5-4-4-5-5-5-5-8--8--8--8--8--8---------------------|
B|--4-4-5-5-5-5-4-4-5-5-5-5-4-4-5-5-5-5-8--8--8--8--8--8---------------------|
G|--4-4-5-5-5-5-4-4-5-5-5-5-4-4-5-5-5-5-8--8--8--8--8--8---------------------|
D|--6-6-7-7-7-7-6-6-7-7-7-7-6-6-7-7-7-7-10-10-10-10-10-10--------------------|   X4
A|--6-6-7-7-7-7-6-6-7-7-7-7-6-6-7-7-7-7-10-10-10-10-10-10--------------------|
E|--4-4-5-5-5-5-4-4-5-5-5-5-4-4-5-5-5-5-8--8--8--8--8--8---------------------|
 


[Verse]

e|---------------------------------------------------------------------------|
B|---------------------------------------------------------------------------|
G|---------------------------------------------------------------------------|
D|---------------------------------------------------------------------------|   X6
A|---------------------------------------------------------------------------|
E|----4/5-5-5-5-5-5-4/5-5-5-5-5-5-4/5-5-5-5-5-5--8-8-8-8-8-8-----------------|
      
You're such a pretty baby, And I wanna be with you
Why don't you like the other boys, girl, And I like you too
I wanna hang with you my baby, I wanna see you at night
But you got your other boys, girl, You make me feel all right

[Chorus]
e|--4-4-5-5-5-5-4-4-5-5-5-5-4-4-5-5-5-5-8--8--8--8--8--8---------------------|
B|--4-4-5-5-5-5-4-4-5-5-5-5-4-4-5-5-5-5-8--8--8--8--8--8---------------------|
G|--4-4-5-5-5-5-4-4-5-5-5-5-4-4-5-5-5-5-8--8--8--8--8--8---------------------|
D|--6-6-7-7-7-7-6-6-7-7-7-7-6-6-7-7-7-7-10-10-10-10-10-10--------------------|  X4
A|--6-6-7-7-7-7-6-6-7-7-7-7-6-6-7-7-7-7-10-10-10-10-10-10--------------------|
E|--4-4-5-5-5-5-4-4-5-5-5-5-4-4-5-5-5-5-8--8--8--8--8--8---------------------|



e|---10-10-10-10-12-12-12-12-------------------------------------------------|
B|---10-10-10-10-12-12-12-12-------------------------------------------------|
G|---10-10-10-10-12-12-12-12-------------------------------------------------|  X4
D|---12-12-12-12-14-14-14-14-------------------------------------------------|   
A|---12-12-12-12-14-14-14-14-------------------------------------------------|
E|---10-10-10-10-12-12-12-12-------------------------------------------------|


[Verse]
e|---------------------------------------------------------------------------|
B|---------------------------------------------------------------------------|
G|---------------------------------------------------------------------------|
D|---------------------------------------------------------------------------|   X6
A|---------------------------------------------------------------------------|
E|----4/5-5-5-5-5-5-4/5-5-5-5-5-5-4/5-5-5-5-5-5--8-8-8-8-8-8-----------------|

I touch you like you know it, I touch you all the time
I wanna see you and you know it, I wanna see you all the time
And you look so fucking pretty, Yeah you look so fucking nice
Oh you look so fucking good girl, WHOO-OOO

[Chorus]


e|--4-4-5-5-5-5-4-4-5-5-5-5-4-4-5-5-5-5-8--8--8--8--8--8---------------------|
B|--4-4-5-5-5-5-4-4-5-5-5-5-4-4-5-5-5-5-8--8--8--8--8--8---------------------|
G|--4-4-5-5-5-5-4-4-5-5-5-5-4-4-5-5-5-5-8--8--8--8--8--8---------------------|  X4
D|--6-6-7-7-7-7-6-6-7-7-7-7-6-6-7-7-7-7-10-10-10-10-10-10--------------------|  
A|--6-6-7-7-7-7-6-6-7-7-7-7-6-6-7-7-7-7-10-10-10-10-10-10--------------------|
E|--4-4-5-5-5-5-4-4-5-5-5-5-4-4-5-5-5-5-8--8--8--8--8--8---------------------|


e|---10-10-10-10-12-12-12-12-------------------------------------------------|
B|---10-10-10-10-12-12-12-12-------------------------------------------------|
G|---10-10-10-10-12-12-12-12-------------------------------------------------|  X4
D|---12-12-12-12-14-14-14-14-------------------------------------------------|
A|---12-12-12-12-14-14-14-14-------------------------------------------------|
E|---10-10-10-10-12-12-12-12-------------------------------------------------|
     OHHH         YEAHHH
     OHHH         YEAHHH
     OHHH         YEAHHH
     WOW,   OK,   COOL

[Outro]

e|---------------------------------------------------------------------------|
B|---------------------------------------------------------------------------|
G|---------------------------------------------------------------------------|
D|---------------------------------------------------------------------------|
A|---------------------------------------------------------------------------|   X7
E|----4/5-5-5-5-5-5----------------------------------------------------------|


************************************

| x   Dead note
| /   Slide up


************************************
Suggest correction
Give kudos to tab author, rate the tab!
1 2 3 4 5
comments
print report bad tab
guest
You may want to rate the tab now too:
select rating
Wanna post a correction for this tab? Suggest correction