Oops, an error
Loading. Please wait.

You Are Going To Hate This bass

1,177 views 27 this week
2 commentsread comments
1 2 3 4 5
2 more votes to show rating
add to favorites
×
Save as Personal and add changes to this tab that will be seen only by you. Learn more ›
×
You can save this tab as Personal to edit and correct it or add notes. All changes will be seen only by you. Learn more »
launch autoscroll
font size
0
reset
guitar tuner
edit
Autoscroll
slow
fast
+/-
esc
set tempo
stop
Author
The Frights
“You Are Going To Hate This”
You Are Going To Hate This (2016)

Standard Tuning (EADG)

So Richard decided to get a little flashy on this
track, fair warning, it’s a little tricky. This tab
is for the album version which is in standard tuning,
however, for reference I used this live session
(https://www.youtube.com/watch?v=Lm-ftFTUNUE)
to help figure out the parts. The album recordings are
all in standard tuning, but it seems that when they play
live they like to tune a half step down. Just an FYI
in case you were wondering why the tab doesn’t match
up with the YouTube link above. Cheers!
~Jeyqwop

Verse 1:
(0:04-0:23)
  1  ^  ^  ^  2  ^  ^  ^  3  ^  ^  ^  4  ^  ^  ^    
|-------------------------------------------------|
|-------------------------------------------------|
|-0-----0--0--0--0--0--0--0-----0--0--0--0--0--0--| 
|-------------------------------------------------|

  1  ^  ^  ^  2  ^  ^  ^  3  ^  ^  ^  4  ^  ^  ^    
|-------------------------------------------------|
|-------------------------------------------------|
|-------------------------------------------------| 
|-2-----2--2--2--2--2--2--2-----------------------|

  1  ^  ^  ^  2  ^  ^  ^  3  ^  ^  ^  4  ^  ^  ^    
|-------------------------------------------------|
|-------------------------------------------------|
|-------------------------------------------------| 
|-10----10-10-10-10-10-10-12----12-12-12-12-12-12-|

  1  ^  ^  ^  2  ^  ^  ^  3  ^  ^  ^  4  ^  ^  ^    
|-------------------------------------------------|
|-------------------------------------------------|
|-0-----0--0--0--0--0--0--0-----------------------| 
|-------------------------------------------------|

  1  ^  ^  ^  2  ^  ^  ^  3  ^  ^  ^  4  ^  ^  ^    
|-------------------------------------------------|
|-------------------------------------------------|
|-0-----0--0--0--0--0--0--0-----0--0--0--0--0--0--| 
|-------------------------------------------------|

  1  ^  ^  ^  2  ^  ^  ^  3  ^  ^  ^  4  ^  ^  ^    
|-------------------------------------------------|
|-------------------------------------------------|
|-------------------------------------------------| 
|-2-----2--2--2--2--2--2--2-----------------------|

  1  ^  ^  ^  2  ^  ^  ^  3  ^  ^  ^  4  ^  ^  ^    
|-------------------------------------------------|
|-------------------------------------------------|
|-------------------------------------------------| 
|-10----------10----10----12----------12----12----|

  1  ^  ^  ^  2  ^  ^  ^  3  ^  ^  ^  4  ^  ^  ^    
|-------------------------------------------------|
|-------------------------------------------------|
|-0-----0--0--0-----0-----0-----------------------| 
|-------------------------------------------------|


Chorus 1:
(0:23-0:42)
  1  ^  ^  ^  2  ^  ^  ^  3  ^  ^  ^  4  ^  ^  ^    
|-------------------------------------------------|
|-------------2-----------------------------------|
|-0-----4-----------4--0--0-----0--0--0--0--0--0--| 
|-------------------------------------------------|

  1  ^  ^  ^  2  ^  ^  ^  3  ^  ^  ^  4  ^  ^  ^    
|-------------------------------------------------|
|-------------------------------------------------|
|-------------------------------------------------| 
|-2-----2--2--2--2--2--2--2-----2--2--2--2--2--2--|

  1  ^  ^  ^  2  ^  ^  ^  3  ^  ^  ^  4  ^  ^  ^    
|-------------------------------------------------|
|-------------------------------------------------|
|-------------------------------------------------| 
|-10----10-10-10-10-10-10-12----12-12-12-12-12-12-|

  1  ^  ^  ^  2  ^  ^  ^  3  ^  ^  ^  4  ^  ^  ^    
|-------------------------------------------------|
|-------------------------------------------------|
|-0-----0--0--0--0--0--0--0-----------------------| 
|-------------------------------------------------|

  1  ^  ^  ^  2  ^  ^  ^  3  ^  ^  ^  4  ^  ^  ^    
|-------------------------------------------------|
|-------------------------------------------------|
|-0-----0--0--0--0--0--0--0--0--0--0--0--0--0--0--| 
|-------------------------------------------------|

  1  ^  ^  ^  2  ^  ^  ^  3  ^  ^  ^  4  ^  ^  ^    
|-------------------------------------------------|
|-------------------------------------------------|
|-------------------------------------------------| 
|-2-----2--2--2--2--2--2--2--2--2--2--2--2--2--2--|

  1  ^  ^  ^  2  ^  ^  ^  3  ^  ^  ^  4  ^  ^  ^    
|-------------------------------------------------|
|-------------------------------------------------|
|-------------------------------------------------| 
|-10----------10----10----12----------12----12----|

  1  ^  ^  ^  2  ^  ^  ^  3  ^  ^  ^  4  ^  ^  ^    
|-------------------------------------------------|
|-------------------------------------------------|
|-0-----0--0--0-----0-----0-----------------------| 
|-------------------------------------------------|


Post-Chorus: (x2)
(0:42-1:02)
  1  ^  ^  ^  2  ^  ^  ^  3  ^  ^  ^  4  ^  ^  ^    
|-------------------------------------------------|
|-------------2-----------------------2-----------|
|-0-----4-----------4--0-----0--4-----------4-----| 
|-------------------------------------------------|

  1  ^  ^  ^  2  ^  ^  ^  3  ^  ^  ^  4  ^  ^  ^    
|-------------2-----------------------2-----------|
|-------4-----------4-----------4-----------4-----|
|-------------------------------------------------| 
|-2--------------------2-----2--------------------|

  1  ^  ^  ^  2  ^  ^  ^  3  ^  ^  ^  4  ^  ^  ^    
|-------------------------------------------------|
|-------------------------------------------------|
|-------9-----12----9-----------9-----12----9-----| 
|-10-------------------10----10-------------------|

  1  ^  ^  ^  2  ^  ^  ^  3  ^  ^  ^  4  ^  ^  ^    
|-------------------------------------------9-h11-|
|----------------------------------7-h9//11-------|
|-------4-----5-----4-h7--5-h7//9-----------------| 
|-7-----------------------------------------------|


Interlude:
(1:02-1:11)
  1  ^  ^  ^  2  ^  ^  ^  3  ^  ^  ^  4  ^  ^  ^    
|-------------------------------------------------|
|-------------2-----------------------2-----------|
|-0-----4-----------4--0-----0--4-----------4-----| 
|-------------------------------------------------|

  1  ^  ^  ^  2  ^  ^  ^  3  ^  ^  ^  4  ^  ^  ^    
|-------------2-----------------------2-----------|
|-------4-----------4-----------4-----------4-----|
|-------------------------------------------------| 
|-2--------------------2-----2--------------------|

  1  ^  ^  ^  2  ^  ^  ^  3  ^  ^  ^  4  ^  ^  ^    
|-------------------------------------------------|
|-------------------------------------------------|
|-------9-----12----9-----------11----14----11----| 
|-10-------------------12----12-------------------|

  1  ^  ^  ^  2  ^  ^  ^  3  ^  ^  ^  4  ^  ^  ^    
|-------------------------------------------------|
|-------------2-----------------------------------|
|-0-----4-----------4--0--------------------------| 
|-------------------------------------------------|


Verse 2:
(1:12-1:30)
  1  ^  ^  ^  2  ^  ^  ^  3  ^  ^  ^  4  ^  ^  ^    
|-------------------------------------------------|
|-------------------------------------------------|
|-0-----0--0--0--0--0--0--0-----0--0--0--0--0--0--| 
|-------------------------------------------------|

  1  ^  ^  ^  2  ^  ^  ^  3  ^  ^  ^  4  ^  ^  ^    
|-------------------------------------------------|
|-------------------------------------------------|
|-------------------------------------------------| 
|-2-----2--2--2--2--2--2--2-----------------------|

  1  ^  ^  ^  2  ^  ^  ^  3  ^  ^  ^  4  ^  ^  ^    
|-------------------------------------------------|
|-------------------------------------------------|
|-------------------------------------------------| 
|-10-10-10-10-10-10-10-10-12-12-12-12-12-12-12-12-|

  1  ^  ^  ^  2  ^  ^  ^  3  ^  ^  ^  4  ^  ^  ^    
|-------------------------------------------------|
|-------------------------------------------------|
|-0-----0--0--0--0--0--0--0-----------------------| 
|-------------------------------------------------|

  1  ^  ^  ^  2  ^  ^  ^  3  ^  ^  ^  4  ^  ^  ^    
|-------------------------------------------------|
|-------------------------------------------------|
|-0-----0--0--0--0--0--0--0-----0--0--0--0--0--0--| 
|-------------------------------------------------|

  1  ^  ^  ^  2  ^  ^  ^  3  ^  ^  ^  4  ^  ^  ^    
|-------------------------------------------------|
|-------------------------------------------------|
|-------------------------------------------------| 
|-2-----2--2--2--2--2--2--2-----------------------|

  1  ^  ^  ^  2  ^  ^  ^  3  ^  ^  ^  4  ^  ^  ^    
|-------------------------------------------------|
|-------------------------------------------------|
|-------------------------------------------------| 
|-10----------10----10----0-----------0-----0-----|

  1  ^  ^  ^  2  ^  ^  ^  3  ^  ^  ^  4  ^  ^  ^    
|-------------------------------------------------|
|-------------------------------------------------|
|-0-----0--0--0-----0-----0-----------------------| 
|-------------------------------------------------|


Chorus 2:
(1:30-1:49)
  1  ^  ^  ^  2  ^  ^  ^  3  ^  ^  ^  4  ^  ^  ^    
|-------------------------------------------------|
|-------------------------------------------------|
|-0-----0--0--0--0--0--0--0-----0--0--0--0--0--0--| 
|-------------------------------------------------|

  1  ^  ^  ^  2  ^  ^  ^  3  ^  ^  ^  4  ^  ^  ^    
|-------------------------------------------------|
|-------------------------------------------------|
|-------------------------------------------------| 
|-2-----2--2--2--2--2--2--2-----2--2--2--2--2--2--|

  1  ^  ^  ^  2  ^  ^  ^  3  ^  ^  ^  4  ^  ^  ^    
|-------------------------------------------------|
|-------------------------------------------------|
|-------------------------------------------------| 
|-10----10-10-10-10-10-10-12----12-12-12-12-12-12-|

  1  ^  ^  ^  2  ^  ^  ^  3  ^  ^  ^  4  ^  ^  ^    
|-------------------------------------------------|
|-------------------------------------------------|
|-0-----0--0--0--0--0--0--0-----------------------| 
|-------------------------------------------------|

  1  ^  ^  ^  2  ^  ^  ^  3  ^  ^  ^  4  ^  ^  ^    
|-------------------------------------------------|
|-------------------------------------------------|
|-0-----0--0--0--0--0--0--0--0--0--0--0--0--0--0--| 
|-------------------------------------------------|

  1  ^  ^  ^  2  ^  ^  ^  3  ^  ^  ^  4  ^  ^  ^    
|-------------------------------------------------|
|-------------------------------------------------|
|-------------------------------------------------| 
|-2-----2--2--2--2--2--2--2--2--2--2--2--2--2--2--|

  1  ^  ^  ^  2  ^  ^  ^  3  ^  ^  ^  4  ^  ^  ^    
|-------------------------------------------------|
|-------------------------------------------------|
|-------------------------------------------------| 
|-10----------10----10----0-----------0-----0-----|

  1  ^  ^  ^  2  ^  ^  ^  3  ^  ^  ^  4  ^  ^  ^    
|-------------------------------------------------|
|-------------------------------------------------|
|-0-----0--0--0-----0-----0-----------------------| 
|-------------------------------------------------|


Interlude 2: (x2)
(1:49-2:09)
  1  ^  ^  ^  2  ^  ^  ^  3  ^  ^  ^  4  ^  ^  ^    
|-------------------------------------------------|
|-------------2-----------------------2-----------|
|-0-----4-----------4--0-----0--4-----------4-----| 
|-------------------------------------------------|

  1  ^  ^  ^  2  ^  ^  ^  3  ^  ^  ^  4  ^  ^  ^    
|-------------2-----------------------2-----------|
|-------4-----------4-----------4-----------4///--|
|-------------------------------------------------| 
|-2--------------------2-----2--------------------|

  1  ^  ^  ^  2  ^  ^  ^  3  ^  ^  ^  4  ^  ^  ^    
|-------------------------------------------------|
|-------------------------------------------------|
|-------9-----12----9-----------11----14----11----| 
|-10-------------------12----12-------------------|

  1  ^  ^  ^  2  ^  ^  ^  3  ^  ^  ^  4  ^  ^  ^    
|-------------------------------------------------|
|-------------2-----------------------2-----------|
|-0-----4-----------4--0-----0--4-----------4-----| 
|-------------------------------------------------|


Verse 3:
(2:09-2:28)
  1  ^  ^  ^  2  ^  ^  ^  3  ^  ^  ^  4  ^  ^  ^    
|-------------------------------------------------|
|-------------------------------------------------|
|-------------------------------------------------|
|-------------------------------------------------|

  1  ^  ^  ^  2  ^  ^  ^  3  ^  ^  ^  4  ^  ^  ^    
|-------------------------------------------------|
|-------------------------------------------------|
|-------------------------------------------------| 
|-------------------------------------------------|

  1  ^  ^  ^  2  ^  ^  ^  3  ^  ^  ^  4  ^  ^  ^    
|-------------------------------------------------|
|-------------------------------------------------|
|-------------------------------------------------| 
|-10~~~~~~~~~~~~~~~~~~~~--12~~~~~~~~~~~~~~~~~~~~--|

  1  ^  ^  ^  2  ^  ^  ^  3  ^  ^  ^  4  ^  ^  ^    
|-------------------------------------------------|
|-------------------------------------------------|
|-0~~~~~~~~~~~~~~~~~~~~~~~~-----------------------| 
|-------------------------------------------------|

  1  ^  ^  ^  2  ^  ^  ^  3  ^  ^  ^  4  ^  ^  ^    
|-------------------------------------------------|
|-------------------------------------------------|
|-0-----0--0--0--0--0--0--0-----0--0--0--0--0--0--| 
|-------------------------------------------------|

  1  ^  ^  ^  2  ^  ^  ^  3  ^  ^  ^  4  ^  ^  ^    
|-------------------------------------------------|
|-------------------------------------------------|
|-------------------------------------------------| 
|-2-----2--2--2--2--2--2--2-----------------------|

  1  ^  ^  ^  2  ^  ^  ^  3  ^  ^  ^  4  ^  ^  ^    
|-------------------------------------------------|
|-------------------------------------------------|
|-------------------------------------------------| 
|-10~~~~~~~~~~~~~~~~~~~~--0~~~~~~~~~~~~~~~~~~~~~--|

  1  ^  ^  ^  2  ^  ^  ^  3  ^  ^  ^  4  ^  ^  ^    
|-------------------------------------------------|
|-------------------------------------------------|
|-0-----0--0--0-----0-----0-----------------------| 
|-------------------------------------------------|


Chorus 3:
(2:28-2:47)
  1  ^  ^  ^  2  ^  ^  ^  3  ^  ^  ^  4  ^  ^  ^    
|-------------------------------------------------|
|-------------------------------------------------|
|-0-----0--0--0--0--0--0--0-----0--0--0--0--0--0--| 
|-------------------------------------------------|

  1  ^  ^  ^  2  ^  ^  ^  3  ^  ^  ^  4  ^  ^  ^    
|-------------------------------------------------|
|-------------------------------------------------|
|-------------------------------------------------| 
|-2-----2--2--2--2--2--2--2-----2--2--2--2--2--2--|

  1  ^  ^  ^  2  ^  ^  ^  3  ^  ^  ^  4  ^  ^  ^    
|-------------------------------------------------|
|-------------------------------------------------|
|-------------------------------------------------| 
|-10----10-10-10-10-10-10-12----12-12-12-12-12-12-|

  1  ^  ^  ^  2  ^  ^  ^  3  ^  ^  ^  4  ^  ^  ^    
|-------------------------------------------------|
|-------------------------------------------------|
|-0-----0--0--0--0--0--0--0-----------------------| 
|-------------------------------------------------|

  1  ^  ^  ^  2  ^  ^  ^  3  ^  ^  ^  4  ^  ^  ^    
|-------------------------------------------------|
|-------------------------------------------------|
|-0-----0--0--0--0--0--0--0--0--0--0--0--0--0--0--| 
|-------------------------------------------------|

  1  ^  ^  ^  2  ^  ^  ^  3  ^  ^  ^  4  ^  ^  ^    
|-------------------------------------------------|
|-------------------------------------------------|
|-------------------------------------------------| 
|-2-----2--2--2--2--2--2--2--2--2--2--2--2--2--2--|

  1  ^  ^  ^  2  ^  ^  ^  3  ^  ^  ^  4  ^  ^  ^    
|-------------------------------------------------|
|-------------------------------------------------|
|-------------------------------------------------| 
|-10----------10----10----0-----------0-----0-----|

  1  ^  ^  ^  2  ^  ^  ^  3  ^  ^  ^  4  ^  ^  ^    
|-------------------------------------------------|
|-------------------------------------------------|
|-0-----0--0--0-----0-----0-----0-----0-----0-----| 
|-------------------------------------------------|


Post-Chorus Outro:
(2:47-3:06)
  1  ^  ^  ^  2  ^  ^  ^  3  ^  ^  ^  4  ^  ^  ^    
|-------------------------------------------------|
|-------------2-----------------------2-----------|
|-0-----4-----------4--0-----0--4-----------4-----| 
|-------------------------------------------------|

  1  ^  ^  ^  2  ^  ^  ^  3  ^  ^  ^  4  ^  ^  ^    
|-------------2-----------------------2-----------|
|-------4-----------4-----------4-----------4-----|
|-------------------------------------------------| 
|-2--------------------2-----2--------------------|

  1  ^  ^  ^  2  ^  ^  ^  3  ^  ^  ^  4  ^  ^  ^    
|-------------------------------------------------|
|-------------------------------------------------|
|-------9-----12----9-----------9-----12----9-----| 
|-10-------------------10----10-------------------|

  1  ^  ^  ^  2  ^  ^  ^  3  ^  ^  ^  4  ^  ^  ^    
|-------------------------------------------9-h11-|
|----------------------------------7-h9//11-------|
|-------4-----5-----4-h7--5-h7//9-----------------| 
|-7-----------------------------------------------|

  1  ^  ^  ^  2  ^  ^  ^  3  ^  ^  ^  4  ^  ^  ^    
|-------------------------------------------------|
|-------------2-----------------------2-----------|
|-0-----4-----------4--0-----0--4-----------4-----| 
|-------------------------------------------------|

  1  ^  ^  ^  2  ^  ^  ^  3  ^  ^  ^  4  ^  ^  ^    
|-------------2-----------------------2-----------|
|-------4-----------4-----------4-----------4-----|
|-------------------------------------------------| 
|-2--------------------2-----2--------------------|

  1  ^  ^  ^  2  ^  ^  ^  3  ^  ^  ^  4  ^  ^  ^    
|-------------------------------------------------|
|-------------------------------------------------|
|-------------------------------------------------|
|-10~~~~~~~~~~~~~~~~~~~~--0~~~~~~~~~~~~~~~~~~~~~--|

  1  ^  ^  ^  2  ^  ^  ^  3  ^  ^  ^  4  ^  ^  ^    
|-------------------------------------------------|
|-------------------------------------------------|
|-0--0--0--0--0--0--0--0--0-----------------------|
|-------------------------------------------------|

************************************

| h  Hammer on
| p  Pull off
| /  Slide up
| \  Slide down
| ~  Vibrato 

************************************
Suggest correction
Creating personal tab
Creating personal tab
You can edit any tab online and save it as your Personal.

You can edit, replace or remove any tab part or add personal notes – all changes will be seen only by you.

Personal tabs can be accessed anytime from any device, even offline.
Learn more »
Give kudos to tab author, rate the tab!
1 2 3 4 5
comments
print report bad tab
2 comments total.
0 reply
joshsb17 66 Mar 10, 2017 09:53 PM

This tab is fairly accurate, but some of the decisions you made when tabbing it makes in harder than it really is to play and just annoying. There's no reason to go up to the 10 fret on the E string when you can go to the 5th on the A string instead and make it a thousand times easier.

guest
You may want to rate the tab now too:
select rating
Wanna post a correction for this tab? Suggest correction