Oops, an error
Loading. Please wait.

You Are Going To Hate This tab

4,108 views 33 this week
2 commentsread comments
1 2 3 4 5
x 3
add to favorites
×
Save as Personal and add changes to this tab that will be seen only by you. Learn more ›
×
You can save this tab as Personal to edit and correct it or add notes. All changes will be seen only by you. Learn more »
launch autoscroll
font size
0
reset
how to read this tab
guitar tuner
edit
Autoscroll
slow
fast
+/-
esc
set tempo
stop
Author
Difficulty
-------------------------------------------------------------------------------
               YOU ARE GOING TO HATE THIS - The Frights
-------------------------------------------------------------------------------
Tabbed by: Angel Tapia
E-mail: atapia@hightechhigh.org

Tuning: Standard

INTRO
e|---------------------------------------------------------------------------|
B|---------------------------------------------------------------------------|
G|----------------------2----------------------------------------------------|
D|-4--4-2-4-4-2-4-4-2-4---4-2---------------2-0-2-4--------------------------|
A|-----------------------------2--2-0-2-2-0----------------------------------|
E|---------------------------------------------------------------------------|
"Why can't I be like you?"
e|-10-------12---------5-5-5-5-5---------------------------------------------|
B|-10-------12---------5-5-5-5-5---------------------------------------------|
G|-11-------13---------6-6-6-6-6---------------------------------------------|
D|-12-------14---------7-7-7-7-7---------------------------------------------|
A|-12-------14---------7-7-7-7-7---------------------------------------------|
E|-10-------12---------5-5-5-5-5---------------------------------------------|
"Why can't I be so cool?"
e|-10-------12---------5-5-5-5-5---------------------------------------------|
B|-10-------12---------5-5-5-5-5---------------------------------------------|
G|-11-------13---------6-6-6-6-6---------------------------------------------|
D|-12-------14---------7-7-7-7-7---------------------------------------------|
A|-12-------14---------7-7-7-7-7---------------------------------------------|
E|-10-------12---------5-5-5-5-5---------------------------------------------|

CHORUS: (Listen to the song for the strumming pattern)
e|-5--2--10--12--5-----------------------------------------------------------|
B|-5--2--10--12--5-----------------------------------------------------------|
G|-6--3--11--13--6-----------------------------------------------------------|
D|-7--4--12--14--7-----------------------------------------------------------|
A|-7--4--12--14--7-----------------------------------------------------------|
E|-5--2--10--12--5-----------------------------------------------------------|

LEAD GUITAR: (play twice)
e|---------------------------------------------------------------------------|
B|-2-2-0-2-2-0-2-2-0-2-3-2-0-------------------------------------------------|
G|---------------------------2-2-1-2-2-1-2-1---------------------------------|
D|-------------------------------------------4-2-----------------------------|
A|---------------------------------------------------------------------------|
E|---------------------------------------------------------------------------|

e|---------------------------------------------------------------------------|
B|---------------------------------------------------------------------------|
G|---------------------2-----------------------------------------------------|
D|-4-4-2-4-4-2-4-4-2-4---4-2-------------2-0-2-4-2-0-------------------------|
A|---------------------------2-2-0-2-2-0-------------------------------------|
E|---------------------------------------------------------------------------|
************************************

| /   slide up
| \   slide down
| h   hammer-on
| p   pull-off
| ~   vibrato
| +   harmonic
| x   Mute note
| b   Bend
| pb  Pre-bend
| br  Bend release
| pbr Pre-bend release
| brb Bend release bend

************************************

            
            
Suggest correction
Creating personal tab
Creating personal tab
You can edit any tab online and save it as your Personal.

You can edit, replace or remove any tab part or add personal notes – all changes will be seen only by you.

Personal tabs can be accessed anytime from any device, even offline.
Learn more »
Give kudos to tab author, rate the tab!
1 2 3 4 5
comments
print report bad tab
2 comments total.
+1 reply
garrettgauthi 10 Jun 05, 2016 04:31 PM

e|---------------------------------------------------------------------------|
B|---------------------------------------------------------------------------|
G|-----------6-6-4-6-6-4-6-6-4-6-7-6-4---------------------------------------|
D|-------------------------------------7-7-6-7-7-6-7-6-----------------------|
A|-----------------------------------------------------9-7-------------------|
E|---------------------------------------------------------------------------|

+1 reply
garrettgauthi 10 Jun 05, 2016 04:39 PM

e|---------------------------------------------------------------------------|
B|---------------------------------------------------------------------------|
G|---------------------------------------------------------------------------|
D|---------------------7-----------------------------------------------------|
A|-9-9-7-9-9-7-9-9-7-9---9-7-------------7-5-7-9-7-5-------------------------|
E|---------------------------7-7-5-7-7-5-------------------------------------|
This is how mikey plays it

guest
You may want to rate the tab now too:
select rating
Wanna post a correction for this tab? Suggest correction