Oops, an error
Loading. Please wait.

2Yl bass

1,477 views 9 this week
no commentswrite comment
1 2 3 4 5
2 more votes to show rating
add to favorites
×
Save as Personal and add changes to this tab that will be seen only by you. Learn more ›
×
You can save this tab as Personal to edit and correct it or add notes. All changes will be seen only by you. Learn more »
launch autoscroll
font size
0
reset
guitar tuner
edit
Autoscroll
slow
fast
+/-
esc
set tempo
stop
Author
Difficulty
The Front Bottoms - 2YL

Tabbed by: Ash (XxThreeCheersxX)
E-mail: burdickash@gmail.com

Tuning: Standard

This is one song where you'll have to pay close attention to the rhythms to get... sorry if this layout
is a bit confusing.  Ironically enough, for whatever reason, the fills in this song were the hardest for 
me to pick out; there are only a couple notes I'm not sure are correct, but I made sure they sound good.

Happy playing!

Intro
G|--------------------------------------------------|       G|--------------|
D|-----------2--------2-----------------------------|       D|-----------2--|
A|-------2-4-------------4--------4-----------------| x 2   A|-------2-4----|
E|-0-2-4-----------------------------5--------5--0--|       E|-0-2-4--------|

G|-------------------------------------------------|
D|-------------------------------------------------|
A|-------------------------------------------------|
E|-5--5--5--5--2--2--3--3--5--5--5--5--2--2--3--3--|

Verse I
G|-----------------------------------------------------------------|
D|-----------------------------------------------------------------|
A|-----------------------------------------------------------------|
E|-0~--------------------------------------------------------------|

G|-----------------------------------------------------------------|
D|-----------------------------------------------------------------|
A|-----------------------------------------------------------------|
E|-5-5-5-5-5-5-5-5-5-5-5-5-5-5-5-5-5-5-5-5-5-5-5-5-5-5-5-5-5-5-5-5-|

G|-----------------------------------------------------------------|
D|-----------------------------------------------------------------|
A|-----------------------------------------------------------------|
E|-0-0-0-0-0-0-0-0-0-0-0-0-0-0-0-0-0-0-0-0-0-0-0-0-0-0-0-0-0-0-0-0-|

G|-----------------------------------------------------------------|
D|-----------------------------------------------------------------|
A|-----------------------------------------------------------------|
E|-5-5-5-5-5-5-5-5-5-5-5-5-5-5-5-5-5-5-5-5-5-5-5-5-5-5-5-5-5-5-5-5-|

Pre-Chorus
G|----------------------------------------------------------|
D|----------------------------------------------------------|
A|----------------------------------------------------------|
E|-0----0-0------2----2-2------4----4-4------5----5-7-5-4-2-|

G|----------------------------------------------------------|
D|----------------------------------------------------------|
A|----------------------------------------------------------|
E|-0----0-0------2----2-2------4----4-4------5----5-5-5\----|
                                                                   (the fill is heard during the drums)
G|---------------------------------------------------------------------------------------|
D|---------------------------------------------------------------1-1-1-1-4------------2--|
A|-------------------------------------------------------2-2-2-2------------------2-4----|
E|-0----0-2----2-4----4-5----\-0----0-2----2-4----4-5-----------------------0-2-4--------|

Chorus
G|-----------------------------------------------------|
D|-2--------2---------------------------------------2--|
A|-------------4--------4-----------------------2-4----| x 2
E|-------------------------5--------5--0--0-2-4--------|

G|-------------------------|
D|-------------------------|
A|-------------------------|
E|-5--5--5--5--2--2--3--3--|

Verse II
G|-----------------------------------------------------------------|
D|-----------------------------------------------------------------|
A|-----------------------------------------------------------------|
E|-0-0-0-0-0-0-0-0-0-0-0-0-0-0-0-0-0-0-0-0-0-0-0-0-0-0-0-0-0-0-0-0-|

G|-----------------------------------------------------------------|
D|-----------------------------------------------------------------|
A|-----------------------------------------------------7-9---7-9---|
E|-5-5-5-5-5-5-5-5-5-5-5-5-5-5-5-5-5-5-5-5-5-5-5-5-5-5-------------|

G|-----------------------------------------------------------------|
D|-----------------------------------------------------------------|
A|-----------------------------------------------------------------|
E|-0-0-0-0-0-0-0-0-0-0-0-0-0-0-0-0-0-0-0-0-0-0-0-0-0-0-0-0-0-0-0-0-|

G|----------------------------------------------------------------|
D|----------------------------------------------------------------|
A|----------------------------------------------------------------|
E|-5-5-5-5-5-5-5-5-5-5-5-5-5-5-5-5-5-5-5-5--5-5-5-5-5-5-5-5-5-5-5-|

Pre-Chorus (same as before)

Chorus II
G|-----------------------------------------------------|
D|-2--------2---------------------------------------2--|
A|-------------4--------4-----------------------2-4----| x 2
E|-------------------------5--------5--0--0-2-4--------|

G|-----------------------------------------------------|
D|-2----4-2-----------------------------------------2--|
A|-------------4----4-2-------------------------2-4----| x 2
E|-------------------------5----4-2----0--0-2-4--------|

G|-------------------------|
D|-------------------------|
A|-------------------------|
E|-5--5--5--5--2--2--3--3--|

Solo
G|-----------------------------------------------------|
D|-2--------2---------------------------------------2--|
A|-------------4--------4-----------------------2-4----| x 2
E|-------------------------5--------5--0--0-2-4--------|

G|-----------------------------------------------------|
D|-2----4-2-----------------------------------------2--|
A|-------------4----4-2-------------------------2-4----| x 2
E|-------------------------5----4-2----0--0-2-4--------|

Pre-Chorus III
G|------------------------------------------------------|
D|------------------------------------------------------|
A|------------------------------------------------------|
E|-0----0-2----2-4----4-5----\-0----0-2----2-4----4-5---|

G|-------------------------------------------------2-2-2-2-2-2-2-2-----------------|
D|-----------------1-1-1-1-1-1-1-1-4-4-4-4-4-4-4-4------------------------------2--|
A|-2-2-2-2-2-2-2-2----------------------------------------------------------2-4----|
E|-----------------------------------------------------------------0--0-2-4--------|

Final Chorus
G|-----------------------------------------------------|
D|-2--------2---------------------------------------2--|
A|-------------4--------4-----------------------2-4----| 
E|-------------------------5--------5--0--0-2-4--------|

G|-----------------------------------------------------|
D|-2----4-2-----------------------------------------2--|
A|-------------4----4-2-------------------------2-4----| 
E|-------------------------5----4-2----0--0-2-4--------|

G|--------------------------------------------------------|
D|-2--2--4-2------------------------------------------2-4-|
A|-----------2-4--4--7-4--------------------------2-4-----|
E|-----------------------7-4-5--5--5-4-2-0--0-2-4---------|

G|-----------------------------------------------------------|
D|-6--4--6-4-----------2----------------2-4---------------2--|
A|------------4--4-2-4---4-2--------2-4---------------2-4----|
E|---------------------------4-5--5----------0--0-2-4--------|

Outro
G|---------------------------------------------------------------------------|
D|---------------------------------------------------------------------------|
A|---------------------------------------------------------------------------|
E|-5--5--5--5--5--5--5--5--2--2--2--2--3--3--3--3--0~------------------------|

| /  slide up
| \  slide down
| h  hammer-on
| p  pull-off
| ~  vibrato
| +  harmonic
| x  Mute note
===============================================================================

            
            
Suggest correction
Creating personal tab
Creating personal tab
You can edit any tab online and save it as your Personal.

You can edit, replace or remove any tab part or add personal notes – all changes will be seen only by you.

Personal tabs can be accessed anytime from any device, even offline.
Learn more »
Give kudos to tab author, rate the tab!
1 2 3 4 5
comments
print report bad tab
guest
You may want to rate the tab now too:
select rating
Wanna post a correction for this tab? Suggest correction