Oops, an error
Loading. Please wait.

Cough It Out bass

version 2
version 2

Whole song

448 views 9 this week
no commentswrite comment
1 2 3 4 5
3 more votes to show rating
add to favorites
×
Save as Personal and add changes to this tab that will be seen only by you. Learn more ›
×
You can save this tab as Personal to edit and correct it or add notes. All changes will be seen only by you. Learn more »
launch autoscroll
font size
0
reset
guitar tuner
edit
Autoscroll
slow
fast
+/-
esc
set tempo
stop
Author
Difficulty
The Front Bottoms - Cough It Out

Tabbed by: Ash (XxThreeCheersxX)
E-mail: burdickash@gmail.com

Tuning: Standard

The other version on this site is decent, but it's missing a few fills and there were some notes wrong,
so here's my take on the song.  I tried to tab out the rhythm as accurately as possible, but it's best
to listen to the song to get a better understanding.

Happy playing everyone!

Come in right before the first chorus
G|-------------------------|
D|-------------------------|
A|-10-10-10-10-10-10-10-10-|
E|-------------------------|

Chorus 
G|---------------3---------------------------3------------------------5--3---------------|
D|----3--5----------3--2-3--------3--5----------3--2-3--------3--5----------3--2-3--3----|
A|-5-------3-------------------5-------3-------------------5-------3---------------------|
E|---------------------------------------------------------------------------------------|

"I am delusional with love"
G|--------------------------5--3--2--------------------------------|
D|---------7--5--3-------------------------------------------------|
A|-5----5-----------3----3-----------1----1~--------0-1--1--1--/5--|
E|-----------------------------------------------------------------|

Post-Chorus x 2
G|-------------------7-7-------------------|
D|----------------7----------8~------------|
A|-3-----5-----8---------------------------|
E|-----------------------------------------|

Verse II
G|-----------2--0---------------0--3--2--|
D|-3----3----------3---------------------|
A|--------------------3----3-------------| x 3
E|---------------------------------------|

G|---------------------------------------------------------------------------------------3--2--------|
D|-3~-----------------2--------------3~--------------5--5--5--5--5--5--5--5--5--5--5--5--------5--3--|
A|---------------3---------1----5--------------------------------------------------------------------|
E|---------------------------------------------------------------------------------------------------|

Chorus II
G|---------------3---------------------------3------------------------5--3---------------|
D|----3--5----------3--2-3--------3--5----------3--2-3--------3--5----------3--2-3--3----|
A|-5-------3-------------------5-------3-------------------5-------3---------------------|
E|---------------------------------------------------------------------------------------|

"I am delusional with love"
G|--------------------------5--3--2--------------------------------|
D|---------7--5--3-------------------------------------------------|
A|-5----5-----------3----3-----------1----1~--------0-1--1--1--/5--| x 2
E|-----------------------------------------------------------------|

Post-Chorus x 4

Bridge
G|-----------2--0--------------0--3--2------------------------------0--3--2--|
D|-3----3----------3------------------------------7--5--3--------------------|
A|--------------------3------3----------5----5-------------3------3----------| x 2
E|---------------------------------------------------------------------------|

"I just don't care"
G|-----------2--0--------------0--3--2------------2--0-----------------------------------3--2--0-----|
D|-3----3----------3--------------------3----3----------3--5----5----5----5----5----5-------------3--|
A|--------------------3------3-----------------------------------------------------------------------|
E|---------------------------------------------------------------------------------------------------|

Chorus I

End with Post-Chorus x 4


| /  slide up
| \  slide down
| h  hammer-on
| p  pull-off
| ~  vibrato
| +  harmonic
| x  Mute note
===============================================================================

            
            
Suggest correction
Creating personal tab
Creating personal tab
You can edit any tab online and save it as your Personal.

You can edit, replace or remove any tab part or add personal notes – all changes will be seen only by you.

Personal tabs can be accessed anytime from any device, even offline.
Learn more »
Give kudos to tab author, rate the tab!
1 2 3 4 5
comments
print report bad tab
guest
You may want to rate the tab now too:
select rating
Wanna post a correction for this tab? Suggest correction