Oops, an error
Loading. Please wait.

Fuck Jobs Chords

version 1
version 1

Whole song

14,814 views 87 this week
5 commentsread comments
1 2 3 4 5
excellent!
x 16
add to favorites
launch autoscroll
font size
0
reset
transpose
0
reset
display chords
guitar tuner
Autoscroll
slow
fast
+/-
esc
set tempo
stop
Help us to improve Ultimate-Guitar.com Take our survey!
×
Wassup

Just kinda figured it out from the live vidyas.
It's my first tab, and it's probably wrong, so excuse any mistakes.

===========

Bracketed chords aren't played on guitar but they'd fit.

Rough estimation of the keyboard bit is at the bottom.

===========
          C
I fucking hate the comments
           F
Oh, do you feel you have to talk?
       C
Nobody asked for your opinion
               F
Your sick, sad way of jerking off
     G
Everyone you think you’re better than
         F
What the fuck, I’m guilty too
         G
Half the time that I’m complaining
         F
I’m just talking shit on you, it’s alright


keyboard bit

C F A E
C F A E

           C
Never underestimate the poor,
            F
hungry, and desperate
             C
My body is a temple
                       F
How much you think I’d get for it?
                 G
I will take cold showers
                    F
From now on until I learn
                     G
Once I’ve fucked the fire
                         F
All that’s left to do is burn, baby burn, baby, burn


keyboard bit

C F A E
C F A E

             C
I want world domination
                    F
Just like everybody else
                          C
So if you hear me talking strategy
                     F
Well, it’s only to myself
                         G
Everybody’s gotta have a gameplan
                             F
Cut it up a couple different ways
                 G          
Just hope no one remembers
                         F    
These, the darkest of my days

F

      F                          G
I can feel myself falling off an aeroplane
       C                      A      
I feel static when I close my eyes
   F                G             
I imagine one day things settling
      C                              A
And I think about what that might be like
         F           G
‘Cause I love you, I miss you
  C             A
I wanna hug and kiss you
         F           G
‘Cause I love you, I miss you
  C             A
I wanna fucking kiss you
It’s alright


Keyboard bit, guitar comes back in half way through

(C) (F) A E
C F A E
C F A E
C F A E
  
        C
When my mind is uncertain
   F
My body decides
        A
When my mind is uncertain
   E
My body decides
        C
When my mind is uncertain
   F
My body decides
        A
When my mind is uncertain
   E
My body decides

C F A E

(C) (F) (A) (E)
(bass outro)

==============

As promised, rough estimation of keyboard part

-------------------------------------------|
-------------------------------------------|
------------9-12-9---------9----9----------|
-10--10--12----------10-12---12------------|
-------------------------------------------|
-------------------------------------------|

-------------------------------------------|
-------------------------------------------|
------------9-12-9---12----9----9----------|
-10--10--12------------------12------------|
-------------------------------------------|
-------------------------------------------|

==============

Rock 'n' Roll

Tom x
Suggest correction new What's this?
You can suggest a correction to this tab. Community and Mods will review your correction and vote to approve or reject it.
comments
print report bad tab
5 comments total. Showing first comments.
0 reply
squishypluto 117 wrote on May 21 2014, 05:58 pm

E|--------------------------------------------------
B|--------------------------------------------------
G|--------------9--12--9------------------9------9--
D|--10--10--12------------12--12--10--12-----12-----
A|--------------------------------------------------
E|--------------------------------------------------

whudup, yo! here's a small correction for the melody. it also sounds really good on a keyboard or synth

0 reply
Nix_UK 82 wrote on January 6 2015, 01:02 pm

C5 F5 G5 A5 E5

e|-------------------------|
B|-------------------------|
G|--5----------------------|
D|--5----3----5----7----2--|
A|--3----3----5----7----2--|
E|-------1----3----5----0--|

0 reply
frankaaynl 11 wrote on September 20 2015, 07:17 am

https://www.youtube.com/watch?v=PQ8gGghIblM

You should watch this, it's pretty clear what he's playing :)

guest
You may want to rate the tab now too:
select rating
Please do not post tabs as comments. Select "correction" instead!