Oops, an error
Loading. Please wait.

Funny You Should Ask bass

580 views 18 this week
no commentswrite comment
1 2 3 4 5
3 more votes to show rating
add to favorites
×
Save as Personal and add changes to this tab that will be seen only by you. Learn more ›
×
You can save this tab as Personal to edit and correct it or add notes. All changes will be seen only by you. Learn more »
launch autoscroll
font size
0
reset
guitar tuner
edit
Autoscroll
slow
fast
+/-
esc
set tempo
stop
This is my first tab but i am pretty sure this is correct. i got lazy with the solo but that should do.
open to corrections. Please give me feedback :) Enjoy!


[Intro/verse]

G|------------------------------------------------------------------------------| 
D|------------------------------------------------------------------------------|
A|-3-3-3-3-3-3-3-3--------------------------------------------------------------|
E|-----------------5-5-5-5-5-5-5-5-0-0-0-0-0-0-0-0-1-1-1-1-1-1-1-1-(x6)---------|


[Pre-Chorus] 

"She said honey you got to learn the love is simple"
Let each note ring

G|-----------------------------------------------------------------------------|
D|-----------------------------------------------------------------------------|
A|-----------------------------------------------------------------------------|
E|1--3-5--(x4)-----------------------------------------------------------------|


[Chorus] 

"cause i was young and didnt think i had to care..."

G|---------------------------------------------------------------------------|
D|---------------------------------------------------------------------------|
A|3-3---------5-5-3-3--------------------------------------------------------|
E|---0-0-3-3---------0-0-3---------------------------------------------------|


[Verse 2] 

"and its freezing..."

G|-----------------------------------------------------------------------------| 
D|-----------------------------------------------------------------------------|
A|-3-3-3-3-3-3-3-3-------------------------------------------------------------|
E|-----------------5-5-5-5-5-5-5-5-0-0-0-0-0-0-0-0-1-1-1-1-1-1-1-1(x4)---------|


[Pre-Chorus]

let each note ring
G|-----------------------------------------------------------------------------|
D|-----------------------------------------------------------------------------|
A|-----------------------------------------------------------------------------|
E|1--3-5--(x4)-----------------------------------------------------------------|

[Chorus] 

"cause i was young and didnt think i had to care..."

G|---------------------------------------------------------------------------|
D|---------------------------------------------------------------------------|
A|3-3---------5-5-3-3--------------------------------------------------------|
E|----0-0-3-3--------0-0-3---------------------------------------------------|


[Verse 3] 

"its funny you should ask..."

G|-----------------------------------------------------------------------------| 
D|-----------------------------------------------------------------------------|
A|-3-3-3-3-3-3-3-3-------------------------------------------------------------|
E|-----------------0-0-0-0-0-0-0-1-1-1-1-1-1-(x2)--------|


[During Brian Solos] 

"123 everyone say cheese..."
 
G|--------------------------------------------------------------------------------| 
D|--------------------------------------------------------------------------------|
A|7-7-7-7-8-8-8-8-7-7-7-7-5-5-5-5-7-7-7-7-8-8-8-8-7-7-7-7-5-5-5-5-----------------|
E|--------------------------------------------------------------------------------|

G|--------------------------------------------------------------------------------------| 
D|--------------------------------------------------------------------------------------|
A|10-10-10-10-10-10-10-10-10-10-10-10-10-10-10-10-12-12-12-12-12-12-12-12-10-10-10-10-10|
E|--------------------------------------------------------------------------------------|



[Chorus] 

"cause i was young and didnt think i had to care..."

G|---------------------------------------------------------------------------|
D|---------------------------------------------------------------------------|
A|3-3---------5-5-3-3--------------------------------------------------------|
E|----0-0-3-3--------0-0-3---------------------------------------------------|


[Verse 4]

"its funny you should ask..."

G|-----------------------------------------------------------------------------| 
D|-----------------------------------------------------------------------------|
A|-3-3-3-3-3-3-3-3-------------------------------------------------------------|
E|-----------------0-0-0-0-0-0-0-1-1-1-1-1-1-1-1-1-3-3-3-3-3-3-3-3-(x2)--------|


End on 1 and let ring

            
            
Suggest correction
Creating personal tab
Creating personal tab
You can edit any tab online and save it as your Personal.

You can edit, replace or remove any tab part or add personal notes – all changes will be seen only by you.

Personal tabs can be accessed anytime from any device, even offline.
Learn more »
Give kudos to tab author, rate the tab!
1 2 3 4 5
comments
print report bad tab
guest
You may want to rate the tab now too:
select rating
Wanna post a correction for this tab? Suggest correction