Oops, an error
Loading. Please wait.

I Think Your Nose Is Bleeding tab

1,641 views 15 this week
5 commentsread comments
1 2 3 4 5
x 4
add to favorites
×
Save as Personal and add changes to this tab that will be seen only by you. Learn more ›
×
You can save this tab as Personal to edit and correct it or add notes. All changes will be seen only by you. Learn more »
launch autoscroll
font size
0
reset
how to read this tab
guitar tuner
edit
Autoscroll
slow
fast
+/-
esc
set tempo
stop
Author
Difficulty
-------------------------------------------------------------------------------
              I THINK YOUR NOSE IS BLEEDING - THE FRONT BOTTOMS
-------------------------------------------------------------------------------
Tabbed by: chriscatpark
E-mail: chriscatpark@gmail.com

My first tab. I don't think it's 100% correct, but it's as good as my ear allows.

Tuning: Standard

Well every once in awhile she'll find my number in her phone and we'll talk for
e|---------------------------------------------------------------------------|
B|---------------------------------------------------------------------------|
G|---------------------------------------------------------------------------|
D|------------------6--------------------------------------------------------|
A|------------------4--------------------6-----------------------------------|
E|---------------------------------------4-----------------------------------|
  hours. She’ll tell me things I would have never known about when we were to-
e|---------------------------------------------------------------------------|
B|---------------------------------------------------------------------------|
G|---------------------------------------------------------------------------|
D|-6-------------------------------------------------------------------------|
A|-4--------------------6----------------------------------------------------|
E|----------------------4----------------------------------------------------|
  gether, she’s saying sorry, it’s just such a long walk home
e|---------------------------------------------------------------------------|
B|---------------------------------------------------------------------------|
G|---------------------------------------------------------------------------|
D|-6-------------------------------------------------------------------------|
A|-4-------------------------------------------6-----------------------------|
E|---------------------------------------------4-----------------------------|
  So she’s coming over cause it’s better than being alone
e|---------------------------------------------------------------------------|
B|---------------------------------------------------------------------------|
G|---------------------------------------------------------------------------|
D|----------------------------------------------------6----------------------|
A|----------------4---------------6-------------------4----------------------|
E|----------------2---------------4------------------------------------------|

e|---------------------------------------------------------------------------|
B|---------------------------------------------------------------------------|
G|---------------------------------------------------------------------------|
D|---------------------6-----------------------------------------------------|
A|---6-----------------4-----------------6-----------------------------------|
E|---4-----------------------------------4-----------------------------------|

Well I will move to the city and I will sleep on a bench in central park
e|---------------------------------------------------------------------------|
B|---------------------------------------------------------------------------|
G|---------------------------------------------------------------------------|
D|-----------------------6---------------------------------------------------|
A|-----------------------4---------------------------6-----------------------|
E|---------------------------------------------------4-----------------------|
And I will make new friends and we can keep all our things in shopping carts
e|---------------------------------------------------------------------------|
B|---------------------------------------------------------------------------|
G|---------------------------------------------------------------------------|
D|---------------6-----------------------------------------------------------|
A|---------------4-----------------------------------6-----------------------|
E|---------------------------------------------------4-----------------------|
  And when the cops come to find me new friends will hide me we will steal
e|---------------------------------------------------------------------------|
B|---------------------------------------------------------------------------|
G|---------------------------------------------------------------------------|
D|---------------------------6-----------------------------------------------|
A|---------------------------4--------------------------------------------6--|
E|------------------------------------------------------------------------4--|
  Whatever we need for fun. And if they get suspicious it means all my new friends will run
e|---------------------------------------------------------------------------|
B|---------------------------------------------------------------------------|
G|---------------------------------------------------------------------------|
D|--------------------------------------------------------------------------6|
A|------------------------------------------4--------------------6----------4|
E|------------------------------------------2--------------------4-----------|

e|---------------------------------------------------------------------------|
B|---------------------------------------------------------------------------|
G|---------------------------------------------------------------------------|
D|----------------------------------------6----------------------------------| x2
A|--3------------4------------6-----------4----------------------------------|
E|--1------------2------------4----------------------------------------------|
  Well I’m not gonna sit here and deny what I think I felt
e|---------------------------------------------------------------------------|
B|---------------------------------------------------------------------------|
G|---------------------------------------------------------------------------|
D|---------------------------------------------------------------------------|
A|-------------------3-------------------------4-----------------------------|
E|-------------------1-------------------------2-----------------------------|
  I want what we had, just wanna feel it with someone else
e|---------------------------------------------------------------------------|
B|---------------------------------------------------------------------------|
G|---------------------------------------------------------------------------|
D|---------------------------------------------6-----------------------------|
A|----------------6----------------------------4-----------------------------|
E|----------------4----------------------------------------------------------|
Well I’m not gonna sit here and deny what I'm pretty sure I felt
e|---------------------------------------------------------------------------|
B|---------------------------------------------------------------------------|
G|---------------------------------------------------------------------------|
D|---------------------------------------------------------------------------|
A|-------------------3-------------------------4-----------------------------|
E|-------------------1-------------------------2-----------------------------|
  I want what we had, just wanna feel it with someone else
e|---------------------------------------------------------------------------|
B|---------------------------------------------------------------------------|
G|---------------------------------------------------------------------------|
D|---------------------------------------------6-----------------------------|
A|----------------6----------------------------4-----------------------------|
E|----------------4----------------------------------------------------------|

e|---------------------------------------------------------------------------|
B|---------------------------------------------------------------------------|
G|---------------------------------------------------------------------------|
D|-----6-----------------------------------6---------------------------------|
A|-----4-----------------6-----------------4----------------6----------------|
E|-----------------------4----------------------------------4----------------|

Well every once in awhile she'll stumble on my number in her phone and she drinks
e|---------------------------------------------------------------------------|
B|---------------------------------------------------------------------------|
G|---------------------------------------------------------------------------|
D|------------------6--------------------------------------------------------|
A|------------------4--------------------6-----------------------------------|
E|---------------------------------------4-----------------------------------|
  too much. and I’ve gotta get my number out of her phone cause she's got the nerve
e|---------------------------------------------------------------------------|
B|---------------------------------------------------------------------------|
G|---------------------------------------------------------------------------|
D|-6-------------------------------------------------------------------------|
A|-4-------------------------------6-----------------------------------------|
E|---------------------------------4-----------------------------------------|
  to call me and tells me she loves me and that she’s tired of being alone
e|---------------------------------------------------------------------------|
B|---------------------------------------------------------------------------|
G|---------------------------------------------------------------------------|
D|-----6---------------------------------------------------------------------|
A|-----4------------------------------------------------6--------------------|
E|------------------------------------------------------4--------------------|
  So she’s coming over cause I'm a bitch and don't know how to say no
e|---------------------------------------------------------------------------|
B|---------------------------------------------------------------------------|
G|---------------------------------------------------------------------------|
D|----------------------------------------------------6----------------------|
A|----------------4---------------6-------------------4----------------------|
E|----------------2---------------4------------------------------------------|

e|---------------------------------------------------------------------------|
B|---------------------------------------------------------------------------|
G|---------------------------------------------------------------------------|
D|----------------------------------------6----------------------------------| x2
A|--3------------4------------6-----------4----------------------------------|
E|--1------------2------------4----------------------------------------------|

I just wasn't ready. I just wasn't cool yet I didn’t know what I wanted
e|---------------------------------------------------------------------------|
B|---------------------------------------------------------------------------|
G|---------------------------------------------------------------------------|
D|---------------------------------------------------------------------------| 
A|---------------3-------------------4-----------------------------6---------| 
E|---------------1-------------------2-----------------------------4---------|
But I should have known what I would probably get                              x4
e|---------------------------------------------------------------------------|
B|---------------------------------------------------------------------------|
G|---------------------------------------------------------------------------|
D|-------------------------------------6-------------------------------------|
A|-------------------------------------4-------------------------------------|
E|---------------------------------------------------------------------------|

Well I’m not gonna sit here and deny what I'm pretty sure I felt
e|---------------------------------------------------------------------------|
B|---------------------------------------------------------------------------|
G|---------------------------------------------------------------------------|
D|---------------------------------------------------------------------------|
A|-------------------3-------------------------4-----------------------------|
E|-------------------1-------------------------2-----------------------------|
  I want what we had, just wanna feel it with someone else
e|---------------------------------------------------------------------------|
B|---------------------------------------------------------------------------|
G|---------------------------------------------------------------------------|
D|---------------------------------------------6-----------------------------|
A|----------------6----------------------------4---6----4--------------------|
E|----------------4--------------------------------4----2--------------------|

Suggest correction
Creating personal tab
Creating personal tab
You can edit any tab online and save it as your Personal.

You can edit, replace or remove any tab part or add personal notes – all changes will be seen only by you.

Personal tabs can be accessed anytime from any device, even offline.
Learn more »
comments
print report bad tab
5 comments total. Showing first comments.
-1 reply
borzughul 183 Aug 27, 2015 08:38 PM, edited on August 28 2015, 12:39 am

no strumming pattern?

-1 reply
borzughul 183 Aug 27, 2015 08:40 PM

The "I just wasn't ready" part is wrong, and there's no strumming pattern, plus versions of this tab already exist that are correct

0 reply
chriscatpark 36 Aug 31, 2015 05:32 PM

Just listen to the song for the strum pattern. And no, there aren't any other versions of this tab. 'Tis why I uploaded my own.

guest
You may want to rate the tab now too:
select rating
Wanna post a correction for this tab? Suggest correction