Oops, an error
Loading. Please wait.

Peach tab

version 2
version 2

Whole song

511 views 12 this week
no commentswrite comment
1 2 3 4 5
2 more votes to show rating
add to favorites
×
Save as Personal and add changes to this tab that will be seen only by you. Learn more ›
×
You can save this tab as Personal to edit and correct it or add notes. All changes will be seen only by you. Learn more »
launch autoscroll
font size
0
reset
how to read this tab
guitar tuner
edit
Autoscroll
slow
fast
+/-
esc
set tempo
stop
This isn't my tab but I've written it in a way that's easier for me, personally, to 
understand. All credit goes to 'Rampy' for the tab, I just worked it around to make it 
easier for myself to play along.


INTRO RIFF
  x3                  x1
e|------------------|----------|
B|------------------|----------|
G|------------------|----------|
D|---5-7-5----5-7---|---5-7-5--|
A|-7--------7-----5-|-7--------|
E|------------------|----------|


e|-------------|
B|-------------|
G|--------5--7-|
D|--5--7--5--7-|
A|--5--7--3--5-|
E|--3--5-------|


You are my peach...
e|-------------|
B|-------------|
G|-----------7-|     x2
D|--5--7--5--7-|
A|--5--7--5--5-|
E|--3--5--3----|


You are the reason I'm smiling...
e|-------------|
B|-------------|
G|--5-----5--7-|     x2
D|--5--7--5--7-|
A|--3--7--3--5-|
E|-----5-------|


One day you will find someone...
e|------------|
B|------------|
G|--9-----5---|      x3
D|--9--7--5---|
A|--7--7--3---|
E|-----5------|


I'll leave a tiny cut...
e|----------------------------------|
B|----------------------------------|
G|--4---5---4---5---4---5---5---5---|
D|--4---5---4---5---4---5---7---5---|
A|--2---3---2---3---2---3---7---3---|
E|----------------------------------|


e|-------------|
B|-------------|
G|--------5--7-|
D|--5--7--5--7-|
A|--5--7--3--5-|
E|--3--5-------|


You are my light...
e|-------------|
B|-------------|
G|--------5--7-|      x2
D|--5--7--5--7-|
A|--5--7--3--5-|
E|--3--5-------|


You are the reason I'm smiling...
e|-------------|
B|-------------|
G|--5-----5--7-|     x2
D|--5--7--5--7-|
A|--3--7--3--5-|
E|-----5-------|


I do things wrong...
e|------------|
B|------------|
G|--9-----5---|      x3
D|--9--7--5---|
A|--7--7--3---|
E|-----5------|

You say I should think before I talk...
e|---------|
B|---------|
G|--4---5--|      x4
D|--4---5--|
A|--2---3--|
E|---------|


It's just so hard to see tomorrow...
e|-------------|
B|-------------|
G|-----5--9--7-|     x2
D|--7--5--9--7-|
A|--7--3--7--5-|
E|--5----------|


e|-------------|
B|-------------|
G|--------5--7-|
D|--5--7--5--7-|
A|--5--7--3--5-|
E|--3--5-------|


END RIFF
e|------------------------------------------------------------------------|
B|------------------------------------------------------------------------|
G|-5/7-777----------5/7-777--------5/7-777----------5/7-777---------------|
D|--------9-7-9-7-5--------9-7-9-7--------9-7-9-7-5--------9-7-9-7-9-7-5~-|
A|------------------------------------------------------------------------|
E|------------------------------------------------------------------------|

            
            
Suggest correction
Creating personal tab
Creating personal tab
You can edit any tab online and save it as your Personal.

You can edit, replace or remove any tab part or add personal notes – all changes will be seen only by you.

Personal tabs can be accessed anytime from any device, even offline.
Learn more »
Give kudos to tab author, rate the tab!
1 2 3 4 5
comments
print report bad tab
guest
Wanna post a correction for this tab? Suggest correction