Oops, an error
Loading. Please wait.

Plastic Flowers bass

451 views 1 this week
no commentswrite comment
1 2 3 4 5
2 more votes to show rating
add to favorites
×
Save as Personal and add changes to this tab that will be seen only by you. Learn more ›
×
You can save this tab as Personal to edit and correct it or add notes. All changes will be seen only by you. Learn more »
launch autoscroll
font size
0
reset
guitar tuner
edit
Autoscroll
slow
fast
+/-
esc
set tempo
stop
Author
Difficulty
The Front Bottoms - Plastic Flowers

Tabbed by: Ash (XxThreeCheersxX)
E-mail: burdickash@gmail.com

Tuning: Standard

Intro (come in with the rest of the band)
G|---------------------------|
D|---------------------------|
A|-5----3----1-1-1-1-1-1-1-1-|
E|---------------------------|

Verse 
G|-----------------------------2-2---------------------------------|
D|-3-3-3-3-3-3-3-3-3-3-3-5-5-5-------------------------------------|
A|---------------------------------1-1-1-1-1-1-1-1-1-1-1-1-1-1-1-1-|
E|-----------------------------------------------------------------|

G|-----------------------------------------------------------------|
D|-----------------------------------------------------------------|
A|-----------------------0-0-0-1-1-3-3-3-3-3-3-3-3-3-3-3-3-3-3-3-3-|
E|-3-3-3-3-3-3-3-3-3-3-3-------------------------------------------|

"Cuz I believe that someones got a plan for me"
G|-----------------------------------------------------------------|
D|-----------------------------------------------------------------|
A|---------------------------------1-1-1-1-1-1-1-1-1-1-1-1-1-1-1-1-|
E|-1-1-1-1-1-1-1-1-1-1-1-1-1-1-1-1---------------------------------|

G|-----------------------------------------------------------------|
D|-----------------------------------------------------------------|
A|---------------------------------3-3-3-3-3-3-3-3-3-3-3-3-3-3-3-3-|
E|-3-3-3-3-3-3-3-3-3-3-3-3-3-3-3-3---------------------------------|

G|-------------------------------0-|
D|-----------------------------2---|
A|-1-1-1-1-1-1-1-1-1-1-1-1-1-3-----|
E|---------------------------------|

Refrain
G|-------------------------------------------------------|
D|-------------------------------------------------------|
A|----------------3-3-3-3-3--1-3-5----3----1----1-3-5-3--|
E|-1----1-1--1-------------------------------------------|

G|-------------------------------------------------------|
D|-------------------------------------------------------|
A|----------------3-3-3-3-3--1-3-5----3----1----1-1------|
E|-1----1-1--1--------------------------------------5-3--|

Verse (same as before)

Refrain II
G|-------------------------------------------------------|
D|-------------------------------------------------------|
A|----------------3-3-3-3-3--1-3-5----3----1----1-1-3-5--|
E|-1----1-1--1-------------------------------------------|

G|-2--0------------------------------------------------|
D|-------3-3-0-----------------------------------------|
A|--------------3-3-3-3-3--1-3-5----3----1----1-1------|
E|------------------------------------------------5-3--|

G|-----------------------------------------------------------------|
D|-----------------------------------------------------------------|
A|-----------------3-3-3-3-3-3-3-3-5-5-5-5-3-3-3-3-1-1-1-1-1-1-1-1-|
E|-1-1-1-1-1-1-1-1-------------------------------------------------|
                                                             (strum 8th notes while slowly doing the slide!)
G|------------------------------------------------------------------------------------------------------|
D|------------------------------------------------------------------------------------------------------|
A|-----------------3-3-3-3-3-3-3-3-5----3----1~--------5----3----1----1-1-1-1-5----3----1~-------/13~---|
E|-1-1-1-1-1-1-1-1--------------------------------------------------------------------------------------|

Bridge 

There's a fill that begins when he says "All these people around you", 
and ends at "worse before it gets better"; listen closely for better timing
G|-2-3-5------2----0------------------------------------|
D|-------------------3----------------------------------|
A|------------------------3---1-------------------------|
E|--------------------------------3--1----1-1-----------|

Play along with the "Bum bum bum bum"
G|-5----3----2----0----|
D|---------------------|
A|---------------------|
E|---------------------|

"I believe that someone's got a plan for me"
G|--------------------------------------------------------------------|
D|-3----3------------3----3-------------------------------------------|
A|-----------5--3--------------5--3----1----1--------0-1----1------0--|
E|-----------------------------------------------1-3------------------|

"They've got a plan for me, even if I don't know yet"
G|---------------------------------------------5--3--2--0--|
D|---------------------------------------------------------|
A|-------------------------------3----3--------------------|
E|-3----3--------3-3----3----------------------------------|

G|---------------------------------------------------------3-5--3--|
D|-3----3------------3----3------------------------------3---------|
A|-----------5--3--------------5--3----1----1--------0-1-----------|
E|-----------------------------------------------1-3---------------|

G|---------------------------------------------------------|
D|---------------------------------------5-5-5-5-----------|
A|-------------------------------3-3-3-3---------3---------|
E|-3----3--------3-3----3----------------------------------|

Refrain III
G|-------------------------------------------------------|
D|-------------------------------------------------------|
A|----------------3-3-3-3-3--1-3-5----3----1----1-3-5-3--|
E|-1----1-1--1-------------------------------------------|

G|-2--0------------------------------------------------|
D|-------3-3-0-----------------------------------------|
A|--------------3-3-3-3-3--1-3-5----3----1----1-1------|
E|------------------------------------------------5-3--|

G|-------------------------------------------------------|
D|-------------------------------------------------------|
A|----------------3-3-3-3-3--1-3-5----3----1----1-3-5-3--|
E|-1----1-1--1-------------------------------------------|

G|-2--0---------------------------------------------------|
D|-------3-3-0--------------------------------------------|
A|--------------3-3-3-3-3--1-3-5----3----1----/13-13--12--|
E|--------------------------------------------------------|

G|-----------------------------------------------------------------|
D|-----------------------------------------------------------------|
A|-----------------3-3-3-3-3-3-3-3-5-5-5-5-3-3-3-3-1-1-1-1-1-1-1-1-|
E|-1-1-1-1-1-1-1-1-------------------------------------------------|
                                                            
G|-------------------------------------------------------3------3--|
D|-----------------------------------------------------------------|
A|-----------------3-3-3-3-3-3-3-3-5-5-5-5-5-3-3-3-3-1-1----1-1----|
E|-1-1-1-1-1-1-1-1-------------------------------------------------|
                                        (strum 8th notes while slowly doing the slide!)
G|----------------------------------------------------------------------|
D|----------------------------------------------------------------------|
A|-5----3----1~--------5----3----1----1-1-1-1-5----3----1~-------/13~---|
E|----------------------------------------------------------------------|

End on:
G|---------------------------------------------------------------|
D|---------------------------------------------------------------|
A|---------------------------------------------------------------|
E|-1------------------------1------------------------------------|

Happy playing!

| /  slide up
| \  slide down
| h  hammer-on
| p  pull-off
| ~  vibrato
| +  harmonic
| x  Mute note
===============================================================================

            
            
Suggest correction
Creating personal tab
Creating personal tab
You can edit any tab online and save it as your Personal.

You can edit, replace or remove any tab part or add personal notes – all changes will be seen only by you.

Personal tabs can be accessed anytime from any device, even offline.
Learn more »
Give kudos to tab author, rate the tab!
1 2 3 4 5
comments
print report bad tab
guest
You may want to rate the tab now too:
select rating
Wanna post a correction for this tab? Suggest correction