Oops, an error
Loading. Please wait.

Summer Shandy bass

version 1
version 1

Whole song

1,177 views 12 this week
1 commentread comment
1 2 3 4 5
2 more votes to show rating
add to favorites
×
Save as Personal and add changes to this tab that will be seen only by you. Learn more ›
×
You can save this tab as Personal to edit and correct it or add notes. All changes will be seen only by you. Learn more »
launch autoscroll
font size
0
reset
guitar tuner
edit
Autoscroll
slow
fast
+/-
esc
set tempo
stop
Author
Difficulty
-------------------------------------------------------------------------------
                             SUMMER SHANDY - The Front Bottoms
-------------------------------------------------------------------------------
Tabbed by: cesare_moon
E-mail: 

Artist: The Front Bottoms
Album: Back On Top
Year: 2015

Tuning: EADG

Intro - 00.00 - 00.10

G|---------------------------------------------------------------------------|
D|---------------------------------------------------------------------------|
A|---------------------------------------------------------------------------|
E|-10/3--3--3--3--3--3--3--2--3-----3--3--3--3--3--3--3--2--3~---------------| 

Verse - 00.10 - 00.33

G|---------------------------------------------------------------------------|
D|---------------------------------------------------------------------------|
A|-----------------9-9-12-12-7-7-10-10---------------------------------------|
E|-3-3-3-3-3-3-3-3-----------------------------------------------------------| x4

Chorus - 00.33 - 00.55

G|---------------------------------------------------------------------------|
D|-------------------------------------------------------8--------6----------|
A|-----------------------------------------------------6---7----4---4--------|
E|-3-3-3-3-3-3-3-3-9-9-9-9-8-8-7-5--3-3-3-3-3-3-3-3--7--------5--------------|

G|---------------------------------------------------------------------------|
D|----------------------8--------6------------------------8--------6---------|
A|--------------------6---7----4---4--------------------6---7----4---4-------|
E|-3-3-3-3-3-3-3-3--7--------5-------3-3-3-3-3-3-3-3--7--------5-------------|

Verse - 00.57 - 01.19

G|---------------------------------------------------------------------------|
D|---------------------------------------------------------------------------|
A|-----------------9-9-12-12-7-7-10-10---------------------------------------|
E|-3-3-3-3-3-3-3-3-----------------------------------------------------------| x2

G|---------------------------------------------------------------------------|
D|-------------------------------------------------------8--------6----------|
A|---------2-2-2-2-3-3-3-3-7-7-7-7---------------------6---7----4---4--------|
E|-3-3-3-3--------------------------3-3-3-3-3-3-3-3--7--------5--------------|

Chorus - 01.19 - 02.02

G|---------------------------------------------------------------------------|
D|-------------------------------------------------------8--------6----------|
A|-----------------------------------------------------6---7----4---4--------|
E|-3-3-3-3-3-3-3-3-9-9-9-9-8-8-7-5--3-3-3-3-3-3-3-3--7--------5--------------|

G|---------------------------------------------------------------------------|
D|----------------------8--------6------------------------8--------6---------|
A|--------------------6---7----4---4--------------------6---7----4---4-------|
E|-3-3-3-3-3-3-3-3--7--------5-------3-3-3-3-3-3-3-3--7--------5-------------|

G|---------------------------------------------------------------------------|
D|---------------------------------------------------------------------------|
A|---------2-2-2-2-3-3-3-3-----------------2-2-2-2-3-3-3-3-------------------|
E|-3-3-3-3-----------------3-3-3-3-7-7-7-7-----------------3-3-3-3-----------| 

G|---------------------------------------------------------------------------|
D|---------------------------------------------------------------------------|
A|---------2-2-2-2-3-3-3-3-----------------2-2-2-2-3-3-3-3-------------------|
E|-7-7-7-7-----------------3-3-3-3-7-7-7-7-----------------3-3-3-3-----------| 

Bridge - 02.02 - 02.39

G|---------------------------------------------------------------------------|
D|-----------------------------------------8--------6------------------------|
A|---------------------------------------6---7----4---4----------------------|
E|-3-3-3-3-3-3-3-3-2-------------------7--------5---------3------------------| 

G|---------------------------------------------------------------------------|
D|---------------------------------------------------------------------------|
A|---------2-2-2-2-3-3-3-3-----------------2-2-2-2-3-3-3-3-------------------|
E|-7-7-7-7-----------------3-3-3-3-7-7-7-7-----------------3-3-3-3-----------| 

G|---------------------------------------------------------------------------|
D|---------------------------------------------------------------------------|
A|---------2-2-----3-3-3-3-----------------2-2-2-2-3-3-3-3-------------------|
E|-7-7-7-7-----------------3-3-----7-7-7-7-----------------3-3-3-3-----------|

Chorus - 02.39 - 03.22

G|---------------------------------------------------------------------------|
D|-------------------------------------------------------8--------6----------|
A|-----------------------------------------------------6---7----4---4--------|
E|----------------------------------3-3-3-3-3-3-3-3--7--------5--------------|

G|---------------------------------------------------------------------------|
D|----------------------8--------6------------------------8--------6---------|
A|--------------------6---7----4---4--------------------6---7----4---4-------|
E|-3-3-3-3-3-3-3-3--7--------5-------3-3-3-3-3-3-3-3--7--------5-------------|

G|---------------------------------------------------------------------------|
D|---------------------------------------------------------------------------|
A|---------2-2-2-2-3-3-3-3-----------------2-2-2-2-3-3-3-3-------------------|
E|-3-3-3-3-----------------3-3-3-3-7-7-7-7-----------------3-3-3-3-----------| 

G|---------------------------------------------------------------------------|
D|---------------------------------------------------------------------------|
A|---------2-2-2-2-3-3-3-3-----------------2-2-2-2-3-3-3-3---------3-3-3-3---|
E|-7-7-7-7-----------------3-3-3-3-7-7-7-7-----------------3-3-3-3-----------| 

Bass Outro - 03.22 - End

G|---------------------------------------------------------------------------|
D|---------------------------------------------------------------------------|
A|-------7-7--5-5--3-3-3-----------------------------------------------------|
E|-7--10-----------------3---------------------------------------------------|

Thank you! :)

| /  slide up
| \  slide down
| h  hammer-on
| p  pull-off
| ~  vibrato
| +  harmonic
| x  Mute note
===============================================================================

            
            
Suggest correction
Creating personal tab
Creating personal tab
You can edit any tab online and save it as your Personal.

You can edit, replace or remove any tab part or add personal notes – all changes will be seen only by you.

Personal tabs can be accessed anytime from any device, even offline.
Learn more »
Give kudos to tab author, rate the tab!
1 2 3 4 5
comments
print report bad tab
1 comment total.
0 reply
XxThreeCheersxX 13,198 Jan 14, 2016 08:53 AM

like your tab for cough it out, a strong effort, but several fills are missing or have wrong notes. good attempt tho, these are hard songs!

guest
You may want to rate the tab now too:
select rating
Wanna post a correction for this tab? Suggest correction