Oops, an error
Loading. Please wait.

Summer Shandy bass

version 2
version 2

Whole song

376 views 1 this week
no commentswrite comment
1 2 3 4 5
2 more votes to show rating
add to favorites
×
Save as Personal and add changes to this tab that will be seen only by you. Learn more ›
×
You can save this tab as Personal to edit and correct it or add notes. All changes will be seen only by you. Learn more »
launch autoscroll
font size
0
reset
guitar tuner
edit
Autoscroll
slow
fast
+/-
esc
set tempo
stop
Author
Difficulty
The Front Bottoms - Summer Shandy

Tabbed by: Ash (XxThreeCheersxX)
E-mail: burdickash@gmail.com

Tuning: Standard

Intro
G|--------------------------------------------------------------------------------|
D|--------------------------------------------------------------------------------|
A|--------------------------------------------------------------------------------|
E|-15\3--3--3--3--3--3--3--2--3---------------3--3--3--3--3--3--3--2--3/15--------|

Verse I
G|----------------------------------------------------------|
D|----------------------------------------------------------|
A|----------------------------------12--12----------10--10--| x 3
E|-3--3--3--3--3--3--3--3/--14--14----------12--12----------|

G|----------------------------------------------------------|
D|----------------------------------------------------------|
A|----------------------------------12--12--10\-------------| x 3
E|-3--3--3--3--3--3--3--3/--14--14--------------------------|

Chorus (listen closely for a better sense of rhythm)
G|----------------------------------------------------------------------------------5----|
D|-------------------------------------------------------------------4--7--4-----2-------|
A|---------------------5--------3-3--3--2--0----------------------5-----------3----------|
E|-3----3----3-3--3---------------------------3----3----3-3--3---------------------------|

G|----------------------------------------------------------|
D|----------------------------------------------------------|
A|----------------------------------12--12----------10--10--| 
E|-3--3--3--3--3--3--3--3/--14--14----------12--12----------|

G|-------------------------------------------5----|
D|----------------------------4--7--4-----2-------|
A|-------------------------5-----------3----------|
E|-3--3--3--3--3--3--3--2-------------------------|

Post-Chorus
G|-------------------------|
D|-------------------------|
A|-------------------------|
E|-3--3--3--3--3--3--3--2--|

Verse II
G|----------------------------------------------------------|
D|----------------------------------------------------------|
A|----------------------------------12--12----------10--10--| x 2
E|-3--3--3--3--3--3--3--3/--14--14----------12--12----------|

G|-----------------------------------------------------------------------------------------------|
D|-----------------------------------------------------------------------------------------------|
A|---------0--2----2----3----3--4--5----5--3-----------------------------------12--12--10--------|
E|-3----3-------------------------------------3--3--3--3--3--3--3--3/--14--14--------------------|

Chorus 

"Yeah that would be great, that would be beach house living"
G|------------------------------------------------------------------------------------------|
D|-5--4--2----------------------------------------------------------------------------------|
A|----------5--2------2-3----3--3-------------------------2----2--2--3----3--4--5--3--2-----|
E|---------------------------------3--3--3--3--0----0--0---------------------------------5--|

G|----------------------------------------------------------------------------------------------|
D|----------------------------------------------------------------------------------------------|
A|-10--10--12--14--14-\2----3----3--3-------------------------2----2--2--3----3--4--5--3--2-----|
E|-------------------------------------3--3--3--3--0----0--0---------------------------------5--|

Post-Chorus

Funky Bass Riff
G|----------------------------------|
D|----------------------------------|
A|-------1--2--4--5--1--2-----------|
E|-2--3--------------------3--------|

Bridge
G|---------------------------------------------------------------------------------------------|
D|---------------------------------------------------------------------------------------------|
A|------------2----2--2--3----3--3-------------------------2--2--2--2--3--3--3--3--5--3--2-----|
E|-3----3--3------------------------3----3--3--0--0--0--0-----------------------------------5--|

G|---------------------------------------------------------------------------------------|
D|---------------------------------------------------------------------------------------|
A|-----------2--2-------3----3-------------------------2----2--2--3----3--3--5--3--2-----|
E|-3----3-------------------------3--3------0----0--0---------------------------------5--|

Final Chorus
G|----------------------------------------------|
D|----------------------------------------------|
A|----------------------------------------------|
E|-3~----------------/10--10--10--10--8~--------|

G|----------------------------------------------------------|
D|----------------------------------------------------------|
A|----------------------------------12--12----------10--10--|  x 2
E|-3--3--3--3--3--3--3--3/--14--14----------12--12----------|

G|-------------------------------------------5----|
D|----------------------------4--7--4-----2-------|
A|-------------------------5-----------3----------|
E|-3--3--3--3--3--3--3--2-------------------------|

"Yeah that would be great, that would be beach house living"
G|------------------------------------------------------------------------------------------|
D|-5--4--2----------------------------------------------------------------------------------|
A|----------5--2------2-3----3--3-------------------------2----2--2--3----3--4--5--3--2-----|
E|---------------------------------3--3--3--3--0----0--0---------------------------------5--|

G|----------------------------------------------------------------------------------|
D|----------------------------------------------------------------------------------|
A|-10--10--12--14--14-\2----3----3--3-------------------------2----2--2--3----3--4--|
E|-------------------------------------3--3--3--3--0----0--0------------------------|

(listen closely for this part)
G|---------------------------------------------------------------------|
D|-------------------------9--9--9--9--7--7--4--4----------------------|
A|-5--5--5--5--5--5--5--5/-------------------------3~------------------|
E|---------------------------------------------------------------------|

Outro
G|---------------------------------------------------------------------|
D|---------------------------------------5~----------------------------|
A|-------6--6--6--5--5--5--3----3--------------------------------------|
E|-8--8----------------------------------3~----------------------------|

Happy playing!

| /  slide up
| \  slide down
| h  hammer-on
| p  pull-off
| ~  vibrato
| +  harmonic
| x  Mute note
===============================================================================
Suggest correction
Creating personal tab
Creating personal tab
You can edit any tab online and save it as your Personal.

You can edit, replace or remove any tab part or add personal notes – all changes will be seen only by you.

Personal tabs can be accessed anytime from any device, even offline.
Learn more »
Give kudos to tab author, rate the tab!
1 2 3 4 5
comments
print report bad tab
guest
You may want to rate the tab now too:
select rating
Wanna post a correction for this tab? Suggest correction