Oops, an error
Loading. Please wait.

Swimming Pool bass

667 views 9 this week
no commentswrite comment
1 2 3 4 5
x 3
add to favorites
×
Save as Personal and add changes to this tab that will be seen only by you. Learn more ›
×
You can save this tab as Personal to edit and correct it or add notes. All changes will be seen only by you. Learn more »
launch autoscroll
font size
0
reset
guitar tuner
edit
Autoscroll
slow
fast
+/-
esc
set tempo
stop
The Front Bottoms - Swimming Pool

Tabbed by: Ash (XxThreeCheersxX)
E-mail: burdickash@gmail.com

Tuning: Standard

Play softly after "and pull my heart right through"
G|-------------------------------|
D|-------2--2-2------------------|
A|-4-4-4---------0-0-0-0-2-2-2-2-| x 2
E|-------------------------------|

Verse II
G|-----------------------------------------------------------|
D|-------2--2-2----------------------------------------------|
A|-4-4-4---------0-0-0-0-2-2-2-2-------7-------------7-------|
E|-------------------------------4-4-4----4-4--5-5-5----5-5--|

G|-----------------------------------------------------------------------------------------|
D|-------2--2-2----------------------------------------------------------------------------|
A|-4-4-4---------0-0-0-0-2-2-2-2-------7-------------7-------------7-----------------------|
E|-------------------------------4-4-4----4-4--4-4-4----4-4--5-5-5----5-5--5-5-5-5-5-5-5-5-|

Chorus ("I'm a creature of a culture that I create")
G|----------------------------------------------------------------|
D|----------------------------------------------------------------|
A|----------------------------------------------------------------| x 2
E|--------------------------------0-0-0-0-0-0-0-0-0-0-0-0-0-0-0-0-|

"And I am permanently preoccupied with your past"
G|----------------------------------------------------------------|
D|----------------------------------------------------------------|
A|----------------------------------------------------------------|
E|-2-2-2-2-2-2-2-2-4-4-4-4-5-5-5--0-0-0-0-0-0-0-0-0-0-0-0-0-0-0-0-|

G|----------------------------------------------------------------------|
D|----------------------------------------------------------------------|
A|----------------------------------------------------------------------|
E|-2-2-2-2-2-2-2-2-4-4-4-4-5-5-5--0-0-0-0-0-0-0-0/12-12-12-12-12-12-12--|

Post-Chorus
G|-------------------------------------------------|
D|-------2--2--------------------2--2--------------|
A|-4--4--------0--0--2--2--4--4--------0--0--2--2--|
E|-------------------------------------------------|

Verse III (start soft and get louder at the end)
G|-----------------------------------------------------------------------------------------------------|
D|------2-------------------------------------2--------------------------------------------------------|
A|-4---------0----2----------------------4---------0----2----------------------------------------------|
E|---------------------4--------5----------------------------4----------------5--------5-5-5-5-5-5-5-5-|

"Follow an orange extension cord"
G|--------------------------------------------------------|
D|------2--2----------------------------------------------|
A|-4--4------2--0-0-0-0-2-2-2-2------7------------7-------|
E|------------------------------4--4----4-4--5--5----5-5--|

G|------------------------------------------------------------------------------------|
D|------2--2--------------------------------------------------------------------------|
A|-4--4------2--0-0-0-0-2-2-2-2------7------------7------------7----------------------|
E|------------------------------4--4----4-4--4--4----4-4--5--5----5-5--5--5-5-5-5-5-5-|

Chorus II (the only difference is when you slide in the last line)
G|----------------------------------------------------------------|
D|----------------------------------------------------------------|
A|----------------------------------------------------------------| x 2
E|--------------------------------0-0-0-0-0-0-0-0-0-0-0-0-0-0-0-0-|

"And I am permanently preoccupied with your past"
G|----------------------------------------------------------------|
D|----------------------------------------------------------------|
A|----------------------------------------------------------------|
E|-2-2-2-2-2-2-2-2-4-4-4-4-5-5-5--0-0-0-0-0-0-0-0-0-0-0-0-0-0-0-0-|

G|--------------------------------------------------------------------|
D|--------------------------------------------------------------------|
A|--------------------------------------------------------------------|
E|-2-2-2-2-2-2-2-2-4-4-4-4-5-5-5--0-0-0-0-0-0-0-0-0-0-0-0/12-12-12-12-|

Bridge (come in after "I've been ignoring you") 
G|---------------------------------------------|
D|---------------------------------------------|
A|---------------------------------------------|
E|-0--0-0-0-0-2--2-2-2-2-4--4-4-4-4-5--5-5-5-5-|

"I will stop cutting my pants into shorts"
G|---------------------------------------------|
D|---------------------------------------------|
A|-7--7-7-7-7-6--6-6-6-6-4--4-4-4-4-0--0-0-0-0-| x 3
E|---------------------------------------------|

G|---------------------------------------------|
D|---------------------------------------------|
A|-7--7-7-7-7-6--6-6-6-6-4--4-4-4-4-2--2-2-2-2-| 
E|---------------------------------------------|

G|-------------------------------------------------------|
D|-------------------------------------------------------|
A|-------------------------------------------------------|
E|-0--0-0-0-0-2--2-2-2-2-4--4-4-4-4-5--5-5-5-5-5---------|

Outro
G|-----------------------------------------------------------------|
D|-----------------------------------------------------------------|
A|-----------------------------------------------------------------| x 2
E|-0-0-0-0-0-0-0-0-0-0-0-0-0-0-0-0-2-2-2-2-2-2-2-2-4-4-4-4-5-5-5-5-|

"There's comfort at the bottom of a swimming pool"
G|----------------------------|
D|------2---------------------|
A|-4---------0----------------|
E|----------------------------|

| /  slide up
| \  slide down
| h  hammer-on
| p  pull-off
| ~  vibrato
| +  harmonic
| x  Mute note
===============================================================================

            
            
Suggest correction
Creating personal tab
Creating personal tab
You can edit any tab online and save it as your Personal.

You can edit, replace or remove any tab part or add personal notes – all changes will be seen only by you.

Personal tabs can be accessed anytime from any device, even offline.
Learn more »
Give kudos to tab author, rate the tab!
1 2 3 4 5
comments
print report bad tab
guest
You may want to rate the tab now too:
select rating
Wanna post a correction for this tab? Suggest correction