Oops, an error
Loading. Please wait.
We have an official The Beers tab made by UG professional guitarists. Check out the tab »
×
880 views 6 this week
1 commentread comment
1 2 3 4 5
x 3
add to favorites
×
Save as Personal and add changes to this tab that will be seen only by you. Learn more ›
×
You can save this tab as Personal to edit and correct it or add notes. All changes will be seen only by you. Learn more »
launch autoscroll
font size
0
reset
how to read this tab
guitar tuner
edit
Autoscroll
slow
fast
+/-
esc
set tempo
stop
Author
Difficulty
-------------------------------------------------------------------------------
                             The Beers - The Front Bottoms
-------------------------------------------------------------------------------
Tabbed by: jane 
E-mail:

this is the acoustic tab for the 'live in the bedroom' recording. heres the link: https://www.youtube.com/watch?v=dMlJKndfa8o .

Tuning:standard

verse 
 (x7)(x7)(x7)(x7)
e|-x---x---x---x-----------------------------------------------------------------|
B|-x---x---x---x-----------------------------------------------------------------|
G|-x---x---x---x-----------------------------------------------------------------|
D|-x---x---x---x-----------------------------------------------------------------|
A|-11--11--7---9-------------------------------------------------------------------|
E|-9---0---5---7-----------------------------------------------------------------|
  There's beer in coffee mugs, water bottles and soda cups
  and its clear, like the windows i came through...

  (x7)(x7)(x7)(x4)(x4)
e|-x---x---x---x---x--------------------------------------------------------------|
B|-x---x---x---x---x--------------------------------------------------------------|
G|-x---x---x---x---x--------------------------------------------------------------|
D|-x---x---x---9---x--------------------------------------------------------------|
A|-11--11--7---7---9----------------------------------------------------------------|
E|-9---0---5---0---7--------------------------------------------------------------|
   That you are in one of those moods and i am in one of them too
  and its hard to communicate anything

  chorus
  (x7)
e|-x---x---x---x---x---x-----------------------------------------------------------|
B|-x---x---x---x---x---x-----------------------------------------------------------|
G|-x---x---x---x---x---x-----------------------------------------------------------|
D|-x---x---x---x---x---x-----------------------------------------------------------|
A|-4---5---7---2---4---5-----------------------------------------------------------|
E|-2---7---9---0---6---7-----------------------------------------------------------|
   And i will remember that summer
   as the summer i was taking steroids
e|-x---x---x---x------------------------------------------------------------------|
B|-x---x---x---x------------------------------------------------------------------|
G|-x---x---x---x------------------------------------------------------------------|
D|-x---x---x---x------------------------------------------------------------------|
A|-7---2---4---5------------------------------------------------------------------|
E|-9---0---6---7------------------------------------------------------------------|
  Cause you like a man with muscles and i like you.

   
e|-x---x---x---x-----------------------------------------------------------------|
B|-x---x---x---x-----------------------------------------------------------------|
G|-x---x---x---x-----------------------------------------------------------------| (x2)
D|-x---x---x---x-----------------------------------------------------------------|
A|-7---2---5---2-----------------------------------------------------------------|
E|-9---4---7---0-----------------------------------------------------------------|

verse
e|-x---x----x---x---x-------------------------------------------------------------|
B|-x---x----x---x---x-------------------------------------------------------------|
G|-x---x----x---x---x-------------------------------------------------------------|
D|-x---x----x---x---x-------------------------------------------------------------|
A|-7---9----9---5---9----------------------------------------------------------------|
E|-9---11---0---7---7----------------------------------------------------------------|
 its the cops are coming in kind of sobering up
its a girl who'll never learn that i could not give a fuck
my friends are happy, i am happy, ill learn to adapt
a darker kind of humor i can still hear them laugh
and there's beer in coffee mugs water bottles and soda cups

e|-x---x---x---x---x--------------------------------------------------------------|
B|-x---x---x---x---x--------------------------------------------------------------|
G|-x---x---x---x---x--------------------------------------------------------------|
D|-x---x---x---9---x--------------------------------------------------------------|
A|-11--11--5---7---9---------------------------------------------------------------|
E|-9---0---7---0---7---------------------------------------------------------------|
  and its clear as the windows i came through

(chorus)
e|-x---x---x---x----x---x----------------------------------------------------------|
B|-x---x---x---x----x---x----------------------------------------------------------|
G|-x---x---x---x----x---x----------------------------------------------------------|
D|-x---x---x---x----x---x----------------------------------------------------------|
A|-4---5---7---2----4---5----------------------------------------------------------|
E|-2---7---9---0----6---7----------------------------------------------------------|
  And I will remember that summer 
As the summer I was taking steroids 
Because you like a man with muscles 
And I like you. 

  (x7)(x7)(x11)
e|-x---x---x--------------------------------------------------------------------|
B|-x---x---x--------------------------------------------------------------------|
G|-x---x---x--------------------------------------------------------------------|
D|-x---x---x--------------------------------------------------------------------|
A|-5---7---9-------------------------------------------------------------------|
E|-7---9---11--------------------------------------------------------------------
But it's an aerial view from your house to my room 
Yeah, it's an aerial view from your house to my room 
And I am looking in your windows, and I am trying not to stare 
Holding on to hope I'm sure was never even there 
'Cause it's an aerial view from your house to my room 

e|-x---x---x---x-----------------------------------------------------------------|
B|-x---x---x---x-----------------------------------------------------------------|
G|-x---x---x---x-----------------------------------------------------------------|
D|-x---x---x---x-----------------------------------------------------------------|
A|-4---5---2---2-----------------------------------------------------------------|
E|-2---7---0---0-----------------------------------------------------------------
 as the summer i was takin steroids (x3)
************************************

| /   slide up
| \   slide down
| h   hammer-on
| p   pull-off
| ~   vibrato
| +   harmonic
| x   Mute note
| b   Bend
| pb  Pre-bend
| br  Bend release
| pbr Pre-bend release
| brb Bend release bend

************************************
Suggest correction
Creating personal tab
Creating personal tab
You can edit any tab online and save it as your Personal.

You can edit, replace or remove any tab part or add personal notes – all changes will be seen only by you.

Personal tabs can be accessed anytime from any device, even offline.
Learn more »
Give kudos to tab author, rate the tab!
1 2 3 4 5
comments
print report bad tab
1 comment total.
+1 reply
borzughul 183 Nov 13, 2015 11:08 PM

Some parts are right, some aren't, plus there are already better tabs for this... sorry for the bad rating. You tried though!

guest
You may want to rate the tab now too:
select rating
Wanna post a correction for this tab? Suggest correction