Oops, an error
Loading. Please wait.

The Bells tab

49 views 6 this week
no commentswrite comment
1 2 3 4 5
3 more votes to show rating
add to favorites
×
Save as Personal and add changes to this tab that will be seen only by you. Learn more ›
×
You can save this tab as Personal to edit and correct it or add notes. All changes will be seen only by you. Learn more »
launch autoscroll
font size
0
reset
how to read this tab
guitar tuner
edit
Autoscroll
slow
fast
+/-
esc
set tempo
stop
Author
Difficulty
listen for stum patterns

[intro]
e|------------------------| 
B|------------------------|
G|------------------------|
D|------------------------| (2x)
A|--3--3--3-----7-7--5-5--|
E|--1--1--1-----5-5--3-3--|

[verse]
all the kids i...
e|------------------------| 
B|------------------------|
G|------------------------|
D|------------------------| 
A|--3--3--3-----7-7--5-5--|
E|--1--1--1-----5-5--3-3--|

someones haunting me...
e|---------------------------| 
B|---------------------------|
G|---------------------------|
D|---------------------------| 
A|--3--3--3-----7-7--5-5---3-|
E|--1--1--1-----5-5--3-3---1-|

[bridge]
we are so cold... 
e|-------------------------------| 
B|-------------------------------|
G|-------------------------------|
D|--------------------3-------5--| 
A|--3--------5--------1-------3--|
E|--1--------3-------------------|



and when i call...
e|--------------------------------| 
B|--------------------------------|
G|--------------------------------|
D|--------------------------------| 
A|--7--------5-------3------------|
E|--5--------3-------1------------|

Lyrics

[verse]
All the kids I used to spend my time with but now can't stand
Seem to be dying of natural causes (of natural causes)
And I could reach my arms with my two hands
In the middle of a crowded room and not touch anyone
Someone talk to me

[bridge]
We are so cold, we are so underground (we are so cold)
Developed in small rooms, speak up loudly now


And when I call, and I will call, make sure you throw your phone as hard as you can at the wall

[verse]
Like my wisdom teeth, all my friends want out
I look nervous and I should
It's gonna hurt more than we had planned, as I split blood out of my mouth
It was nice when I woke up, but then the clouds came down like pain
But it isn't all that bad; the desert could use the rain

[verse]
I need to tattoo (need to tattoo) this new black eye (so fucked up)
Shave my head to the skin to let everyone know just how

[bridge]
We are so cold, (we are so cold) we are so underground (we are so underground).
Developed in small rooms, speak up loudly now


And when I call, and I will call, make sure you throw your phone as hard as you can at the wall

            
            
Suggest correction
Creating personal tab
Creating personal tab
You can edit any tab online and save it as your Personal.

You can edit, replace or remove any tab part or add personal notes – all changes will be seen only by you.

Personal tabs can be accessed anytime from any device, even offline.
Learn more »
Give kudos to tab author, rate the tab!
1 2 3 4 5
comments
print report bad tab
guest
You may want to rate the tab now too:
select rating
Wanna post a correction for this tab? Suggest correction