Oops, an error
Loading. Please wait.

The Fued tab

4,960 views 3 this week
1 commentread comment
1 2 3 4 5
x 6
add to favorites
×
Save as Personal and add changes to this tab that will be seen only by you. Learn more ›
×
You can save this tab as Personal to edit and correct it or add notes. All changes will be seen only by you. Learn more »
launch autoscroll
font size
0
reset
how to read this tab
guitar tuner
edit
Autoscroll
slow
fast
+/-
esc
set tempo
stop
Author
Difficulty
First tab, but it's correct I'm pretty sure. It's pretty easy.

Listen for the strum patterns:



((( Verse )))
"I was so bored before I met you...."
e |--------------------------|
B |--------------------------|
G |--------------------------|
D |--4-----6--------4--------|
A |--2--4--4--6--2--2--4-----|
E |-----2-----4--0-----2-----|

e |--------------------------|
B |--------------------------|
G |--------------------------|
D |--4-----6-----------------|
A |--2--4--4--6--2--4--------|
E |-----2-----4--0--2--------|



((( Pre Chorus )))
"She says 'you, you should admit it'...."
e |--------------------------|
B |--------------------------|
G |--------------------------|
D |--6--4--------------------|
A |--4--2--6--4--------------|
E |--------4--2--------------|  x2



((( Chorus )))
"I'm just saying it's a bummer man sorry for interrupting...."
e |--------------------------|
B |--------------------------|
G |--------------------------|
D |--------------------------|
A |--222222222222222--444444-|
E |--000000000000000--222222-|


Then repeat those last three things.


((( Interlude thing : This part might be wrong, I can't tell )))
"She said tell me, what I need to hear..."
e |--------------------------|
B |--------------------------|
G |--------------------------|
D |--4-----------------------|
A |--2--6--4--2--------------|
E |-----4--2--0--------------|  x2



((( Bridge )))
"She said you, you, you, should probably admit it...."
e |--------------------------|
B |--------------------------|
G |--------------------------|
D |--44444444444-------------|
A |--22222222222-22222222222-|
E |--------------00000000000-|

e |--------------------------|
B |--------------------------|
G |--------------------------|
D |--------------------------|
A |--44444444444-22222222222-|
E |--22222222222-00000000000-|  x4



"I'm just saying it's a bummer man...."
e |--------------------------|
B |--------------------------|
G |--------------------------|
D |--4-----------------------|
A |--2--4--2-----------------|
E |-----2--0-----------------|


e |--------------------------|
B |--------------------------|
G |--------------------------|
D |--4-----6--------4--------|
A |--2--4--4--6--2--2--4-----|
E |-----2-----4--0-----2-----|

e |--------------------------|
B |--------------------------|
G |--------------------------|
D |--4-----6-----------------|
A |--2--4--4--6--2--4--------|
E |-----2-----4--0--2--------|  x2



End on the last:
--4---|
--2---|
Suggest correction
Creating personal tab
Creating personal tab
You can edit any tab online and save it as your Personal.

You can edit, replace or remove any tab part or add personal notes – all changes will be seen only by you.

Personal tabs can be accessed anytime from any device, even offline.
Learn more »
comments
print report bad tab
1 comment total.
0 reply
spencer.rhoton. 21 Nov 19, 2013 06:16 PM

The lead bit on the chorus:
|-11-9-14-12---------7-14-11-9-----|
|------------7-9---9---------------|
|----------------------------------|
|----------------------------------|
|----------------------------------|
|----------------------------------|

guest
You may want to rate the tab now too:
select rating
Wanna post a correction for this tab? Suggest correction