Oops, an error
Loading. Please wait.

The Plan Fuck Jobs Tab

version 1
version 1

Solo

Whole song

10 views 10 this week
no commentswrite comment
1 2 3 4 5
3 more votes to show rating
add to favorites
launch autoscroll
font size
0
reset
how to read this tab
guitar tuner
Autoscroll
slow
fast
+/-
esc
set tempo
stop
Help us to improve Ultimate-Guitar.com Take our survey!
×
Author
Difficulty
novice
This is my first tab, correct me if any of this is wrong but heres that one riff that I couldn't 
find any other tabs for :)

e|---------------------------------------------------------------------------|
B|---------------------------------------------------------------------------|
G|---9-9-7-7-5-5-5---5-7-9---------------------------------------------------|
D|-----------------7----7-5--------------------------------------------------|
A|---------------------------------------------------------------------------|
E|---------------------------------------------------------------------------|

e|---------------------------------------------------------------------------|
B|---------------------------------------------------------------------------|
G|---9-9-7-7-5-5-5---5-7/9---------------------------------------------------|
D|-----------------7---------------------------------------------------------|
A|---------------------------------------------------------------------------|
E|---------------------------------------------------------------------------|


************************************

| /  Slide up

************************************
Suggest correction
Give kudos to tab author, rate the tab!
1 2 3 4 5
comments
print report bad tab
guest
You may want to rate the tab now too:
select rating
Wanna post a correction for this tab? Suggest correction