Oops, an error
Loading. Please wait.

Twin Size Mattress Ukulele Chords

version 1
version 1

Whole song

Interactive

1,180 views 129 this week
no commentswrite comment
1 2 3 4 5
x 3
add to favorites
launch autoscroll
font size
0
reset
transpose
0
reset
display chords
guitar tuner
Autoscroll
slow
fast
+/-
esc
set tempo
stop
Help us to improve Ultimate-Guitar.com Take our survey!
×
Author
[Intro]
a|-----------|
e|-----------|
c|--4---4----|
g|----4---4--|

[Verse 1]
this is for the lions
a|------------------6---6---6---6---7---7---7---7---0---0---0---0-----|
e|--0---0---0---0-----------------------------------------------------|
c|--------------------------------------------------------------------|
g|----4---4---4---4---4---4---4---4---4---4---4---4---4---4---4---4---|

[Verse part]
i will help you swim
a|----------0---0-----------0---0-----------0---0-----------0---0-----|
e|----4---4---4---4---4---4---4---4---4---4---4---4---4---4---4---4---|
c|--1---1-----------1---1-----------1---1-----------1---1-------------|
g|--------------------------------------------------------------------|

a|-----------|
e|-----------|
c|--4---4----|
g|----4---4--|

[Lead part 1]
a|-----------|
e|-----------|
c|--4----4---|
g|--9----9---|

[Verse part 1] 
this is for the snakes
a|------------------6---6---6---6---7---7---7---7---0---0---0---0-----|
e|--0---0---0---0-----------------------------------------------------|
c|--------------------------------------------------------------------|
g|----4---4---4---4---4---4---4---4---4---4---4---4---4---4---4---4---|

[Verse part 2]
it is no big surprise
a|----------0---0-----------0---0-----------0---0-----------0---0-----|
e|----4---4---4---4---4---4---4---4---4---4---4---4---4---4---4---4---|
c|--1---1-----------1---1-----------1---1-----------1---1-------------|
g|--------------------------------------------------------------------|

[Verse part 3]
with tears in my eyes
a|--------0---------0-----|
e|---4----4----4----4-----|
c|---1---------1----------|
g|------------------------|

you said hey man i love you but no fucking way
a|----------0---0-----------0---0-----------0---0-----------0---0-----|
e|----4---4---4---4---4---4---4---4---4---4---4---4---4---4---4---4---|
c|--1---1-----------1---1-----------1---1-----------1---1-------------|
g|--------------------------------------------------------------------|

[Chorus]
im sure that we could find something for you to do on stage
a|--2-2-2-2-2-2-2-2--6-6-6-6-6-6-6-6--7-7-7-7-7-7-7-7--4-4-4-4-4-4-4-4--|
e|--0-0-0-0-0-0-0-0--4-4-4-4-4-4-4-4--5-5-5-5-5-5-5-5--2-2-2-2-2-2-2-2--|
c|--4-4-4-4-4-4-4-4--8-8-8-8-8-8-8-8--9-9-9-9-9-9-9-9--6-6-6-6-6-6-6-6--|
g|----------------------------------------------------------------------|

maybe shake a tambourine
a|--2-2-2-2-2-2-2-2--6-6-6-6-6-6-6-6--7-7-7-7-7-7-7-7--4~---|
e|--0-0-0-0-0-0-0-0--4-4-4-4-4-4-4-4--5-5-5-5-5-5-5-5--2~---|
c|--4-4-4-4-4-4-4-4--8-8-8-8-8-8-8-8--9-9-9-9-9-9-9-9--6----|
g|----------------------------------------------------------|

[Lead]
a|------------------------------------------------------------------|
e|-----2--4--------------------------2--4---------------------------|
c|--4------------------------------4--------------------------------|
g|-----------4--6--8---6-8--6--4-----------4--8---6---8---9---13----|

(repeat verse with strumming not picking)

[Lead Verse part 1]
a|-------------------------------------|
e|-----2---2---2---2---4---4---4---4---|
c|---4---4---4---4---4---4---4---4-----|
g|-------------------------------------|

[Lead Verse part 2]
a|---------------|
e|------2-----4--|
c|---4-----4-----|
g|---------------|

[Bridge]
i wanna contribute to the chaos
a|--2-2-2-2-2-2-2-2--6-6-6-6-6-6-6-6--7-7-7-7-7-7-7-7--4-4-4-4-4-4-4-4--|
e|--0-0-0-0-0-0-0-0--4-4-4-4-4-4-4-4--5-5-5-5-5-5-5-5--2-2-2-2-2-2-2-2--|
c|--4-4-4-4-4-4-4-4--8-8-8-8-8-8-8-8--9-9-9-9-9-9-9-9--6-6-6-6-6-6-6-6--|
g|----------------------------------------------------------------------|

[Lead]
a|---------------------------------------------------------r--------|
e|-----2--4--------------------------2--4---------------------------|
c|--4------------------------------4--------------------------------|
g|-----------4--6--8---6-8--6--4-----------4--8---6---8---9---13----|

[Bridge]
she hopes im cursed forever
a|--2-2-2-2-2-2-2-2-2-2-2-2-2-2-2-2--4-4-4-4-4-4-4-4--7-7-7-7-7-7-7-7---|
E|--0-0-0-0-0-0-0-0-0-0-0-0-0-0-0-0-------------------5-5-5-5-5-5-5-5---|
d|--4-4-4-4-4-4-4-4-4-4-4-4-4-4-4-4--8-8-8-8-8-8-8-8--9-9-9-9-9-9-9-9---|
g|-----------------------------------6-6-6-6-6-6-6-6--------------------|

[Outro]
a|--------------------------------------|
E|--------------------------------------|
d|--4---4---4---4---4---4---4---4---4---|
g|----4---4---4---4---4---4---4---4-4---|
 
************************************

| r  Release
| ~  Vibrato

************************************
Suggest correction
Give kudos to tab author, rate the tab!
1 2 3 4 5
comments
print report bad tab
guest
You may want to rate the tab now too:
select rating
Wanna post a correction for this tab? Suggest correction