Oops, an error
Loading. Please wait.

Twin Size Mattress Tab

version 2
version 2

Whole song

Interactive

18,379 views 21 this week
no commentswrite comment
1 2 3 4 5
excellent!
x 7
add to favorites
launch autoscroll
font size
0
reset
how to read this tab
guitar tuner
Tab Pro tools
  • play this tab
  • loop segment
  • change instrument
  • show fretboard
  • metronome
×
Best way to learn
"Twin Size Mattress"
Autoscroll
slow
fast
+/-
esc
set tempo
stop
Contributor
Difficulty
intermediate
The Front Bottoms - Twin Sized Mattress
Talon of the Hawk 2013
Figured this out so I figured I'd share it :) enjoy

Tabbed by Matt Padron
matthewpadron113@yahoo.com
Standard tuning

Intro
e-----------------------------------|
B---0---0---0---0---0---0---0---0---|
G-----------------------------------|
D-----------------------------------|
A-----------------------------------|
E-0---0---0---0---0---0---0---0-----|

Verse part 1
           "This is for the lions..."
e-----------------------------------------------------------------|
B---0---0---0---0---0---0---0---0---0---0---0---0---0---0---0---0-|
G-----------------------------------------------------------------|
D-----------------------------------------------------------------| X2
A-----------------6---6---6---6---7---7---7---7---0---0---0---0---|
E-0---0---0---0---------------------------------------------------|

Verse part 2
"But I will help you swim..."
e-----------------------------------------------------------------|
B---0---0---0---0---0---0---0---0---0---0---0---0---0---0---0---0-|
G-----------------------------------------------------------------|
D-----------------------------------------------------------------|
A-4---4---0---0---4---4---0---0---4---4---0---0---4---4---0---0---|
E-----------------------------------------------------------------|

Repeat Intro with open E chords
Repeat Verse part 1 X2 with Electric guitar fill 1

Electric guitar fill 1
e----------------------------------------------------------------------|
B--------------------9---9---9---9---9---9---9---9---------------------|
G---9---9---9---9--8----8---8---8---9---9---9---9-----9----9----9----9-|
D-9---9---9---9-------------------------------------11---11---11---11--|
A----------------------------------------------------------------------|
E----------------------------------------------------------------------|
  . . . . . . . . . . . . . . . . . . . . . . . . . . . . . . . . . . .
e------------------------------------------------------------------------|
B--------------------9---9---9---9---9---9---9---9----10---10---10----10-|
G---9---9---9---9--8----8---8---8---9---9---9---9------------------------|
D-9---9---9---9-------------------------------------11---11---11---11----|
A------------------------------------------------------------------------|
E------------------------------------------------------------------------|
  . . . . . . . . . . . . . . . . . . . . . . . . . . . . . . . . . . .

Repeat Verse part 2 with Electric guitar fill 2

Electric guitar fill 2
e------------------------------------------------|
B------7~~~-5~~~-9~~~-5~~~-7~~~-5~~~-9~~~--------|
G-------------------------------------------9~~~-|
D-9~~~------------------------------------9------|
A------------------------------------------------|
E------------------------------------------------|

Chorus
E                      G# Minor           A         F#
I'm sure that we could find something for you to do onstage
Maybe shake a tambourine or when I sing you sing harmonies
e-----------------------------------------------------------------|
B-----------------------------------------------------------------|
G-----------------------------------------------------------------|
D-2-2-2-2-2-2-2-2-6-6-6-6-6-6-6-6-7-7-7-7-7-7-7-7-4-4-4-4-4-4-4-4-|
A-2-2-2-2-2-2-2-2-6-6-6-6-6-6-6-6-7-7-7-7-7-7-7-7-4-4-4-4-4-4-4-4-|
E-0-0-0-0-0-0-0-0-4-4-4-4-4-4-4-4-5-5-5-5-5-5-5-5-2-2-2-2-2-2-2-2-|
  . . . . . . . . . . . . . . . . . . . . . . . . . . . . . . . .
Bridge:
Chords
E                             C#Minor       A
Electric guitar fill 3
e------------------------------------------------------------|
B----------------------12~~~--14~~~--16~~~--14~~~-16p14------|
G--------11~~~--13~~~-----------------------------------16~~-|
D-14~~~------------------------------------------------------|
A------------------------------------------------------------|
E------------------------------------------------------------|

e------------------------------------------------16~~~--|
B----------------------12~~~--16~~~--14~~~-14h16--------|
G--------11~~~--13~~~-----------------------------------|
D-14~~~-------------------------------------------------|
A-------------------------------------------------------|
E-------------------------------------------------------|

Repeat Intro
Repeat Verse part 1 with Electric guitar fill 1
Repeat Verse part 2 with Electric guitar fill 2
ChorusX4

Electric guitar fill 4
         "I wanna contribute, to the chaos..."
e-0-0-0-0-0-0-0-0-I-0-0-0-0-0-0-0-0-0-0-0-0-0-0-0-0-0-0-0-0-0-0-0-0-|
B-5-5-5-5-5-5-5-5-I-5-5-5-5-5-5-5-5-4-4-4-4-4-4-4-4-2-2-4-4-2-2-0-0-|
G-----------------I-------------------------------------------------|
D-----------------I-------------------------------------------------|
A-----------------I-------------------------------------------------|
E-----------------I-------------------------------------------------|

e-0-0-0-0-0-0-0-0-|
B-----------------|
G-1-1-1-1-1-1-1-1-|
D-----------------|
A-----------------|
E-----------------|

Repeat Electric guitar fill 3X2
Then with these chords:

              E                        C#Minor         A
She hopes I'm cursed forever sleep on a twin size mattress
       E                               C#Minor        A
In somebody's attic or basement my whole life

Chords continue with this lead
e-16------------16--------------------------------------------|
B--------17-------------17--------17------16~~~16/14------14b-|
G----16-------------16-------16--------16-------------13--13b-|
D-------------------------------------------------------------|
A-------------------------------------------------------------|
E-------------------------------------------------------------|

Repeat Intro one last time and that's it =) hope you guys like it I'm sure it's at least 
95% there let me know what you think!
comments
print report bad tab
I want to post or [tab]
guest
You may want to rate the tab now too:
select rating
Please do not post tabs as comments. Select "correction" instead!