Oops, an error
Loading. Please wait.

Water Gun Knife Tab

109 views 6 this week
no commentswrite comment
1 2 3 4 5
3 more votes to show rating
add to favorites
launch autoscroll
font size
0
reset
how to read this tab
guitar tuner
Autoscroll
slow
fast
+/-
esc
set tempo
stop
Help us to improve Ultimate-Guitar.com Take our survey!
×
Author
Difficulty
novice
About this tab version
Couldn't find a tab of this song. Decided to create one. Was this info helpful? Yes No
[Verse]

e|---------------------------------|
B|---------------------------------|
G|--5------------------------------|
D|--5------------------------------|
A|--3------------------------------|
E|---------------------------------|

e|---------------------------------|
B|---------------------------------|
G|--7------------------------------|
D|--7------------------------------|
A|--5------------------------------|
E|---------------------------------|

e|---------------------------------|
B|---------------------------------|
G|--10-----------------------------|
D|--10-----------------------------|
A|--8------------------------------|
E|---------------------------------|

e|---------------------------------|
B|---------------------------------|
G|--12~----------------------------|
D|--12~----------------------------|
A|--10~----------------------------|
E|---------------------------------|


[Pre-Chorus]

 And there are things...
e|---------------------------------|
B|---------------------------------|
G|--5-5-5-5------------------------|
D|--5-5-5-5------------------------|
A|--3-3-3-3------------------------|
E|---------------------------------|


e|---------------------------------|
B|---------------------------------|
G|--7-7-7-7------------------------|
D|--7-7-7-7------------------------|
A|--5-5-5-5------------------------|
E|---------------------------------|

e|---------------------------------|
B|---------------------------------|
G|--10-10-10-10--------------------|
D|--10-10-10-10--------------------|
A|--8--8--8--8---------------------|
E|---------------------------------|

e|---------------------------------|
B|---------------------------------|
G|--12-12-12-12--------------------|
D|--12-12-12-12--------------------|
A|--10-10-10-10--------------------|
E|---------------------------------|


[Chorus]

      And I know...
e|---------------------------------|
B|---------------------------------|
G|--7-7-7-7------------------------|
D|--7-7-7-7------------------------|
A|--5-5-5-5------------------------|
E|---------------------------------|

e|---------------------------------|
B|---------------------------------|
G|--10-10-10-10--------------------|
D|--10-10-10-10--------------------|
A|--8--8--8--8---------------------|
E|---------------------------------|


e|---------------------------------|
B|---------------------------------|
G|--5-5-5-5------------------------|
D|--5-5-5-5------------------------|
A|--3-3-3-3------------------------|
E|---------------------------------|


e|---------------------------------|
B|---------------------------------|
G|---------------------------------|
D|--5-5-5-5------------------------|
A|--5-5-5-5------------------------|
E|--3-3-3-3------------------------|


Sequence:

1. Verse (x2)
2. Pre-Сhorus (x2)
3. Chorus (x4)
4. Verse (x2)
5. Pre-Сhorus (x2)
6. Chorus (x4)
7. Verse (x4) (keyboard riff)
8. Pre-Сhorus (x2)
9. Chorus (x4)

That's it. Very easy. Strumming patterns should be easy to figure out.


************************************

| ~  Vibrato

************************************
Suggest correction
Give kudos to tab author, rate the tab!
1 2 3 4 5
comments
print report bad tab
guest
You may want to rate the tab now too:
select rating
Wanna post a correction for this tab? Suggest correction