Oops, an error
Loading. Please wait.

West Virginia solo tab

version 1
version 1

Solo

  • These are the two solos from west virginia. the ma... Show more

Whole song

121 views 12 this week
1 commentread comment
1 2 3 4 5
3 more votes to show rating
add to favorites
×
Save as Personal and add changes to this tab that will be seen only by you. Learn more ›
×
You can save this tab as Personal to edit and correct it or add notes. All changes will be seen only by you. Learn more »
launch autoscroll
font size
0
reset
how to read this tab
guitar tuner
edit
Autoscroll
slow
fast
+/-
esc
set tempo
stop
About this tab version
These are the two solos from west virginia. the main solo and one that comes later in the song. I believe these are easier because there are not as many jumps on the same tab. Was this info helpful? Yes No
[Solo 1]
e|---------------------------------------------------------0--|
B|-12-10-----------------------------9----0--0-0--11h12p11----|
G|-------12-9--9-9-11p9-----------11---11---------------------| x2
D|----------------------12-9--9-9-----------------------------|
A|------------------------------------------------------------|
E|------------------------------------------------------------|

[Solo 2]
e|-----7-------------------|-----7----------------------|
B|-8-----------------------|-8--------------------------|
G|---7---7-9--7------------|---7---7-9--7----------16\9-| x2
D|---------------10-9------|---------------10-9/15------|
A|--------------------10---|----------------------------|
E|-------------------------|----------------------------|

********************

| h  hammer down
| p  pull off
| /  slide up
| \  slide down

********************

            
            
Suggest correction
Creating personal tab
Creating personal tab
You can edit any tab online and save it as your Personal.

You can edit, replace or remove any tab part or add personal notes – all changes will be seen only by you.

Personal tabs can be accessed anytime from any device, even offline.
Learn more »
Give kudos to tab author, rate the tab!
1 2 3 4 5
comments
print report bad tab
1 comment total.
0 reply
carter.stouppe 10 Aug 28, 2017 07:10 PM

me gusta amigo

guest
You may want to rate the tab now too:
select rating
Wanna post a correction for this tab? Suggest correction