Oops, an error
Loading. Please wait.

Wolfman bass

508 views 9 this week
2 commentsread comments
1 2 3 4 5
1 last vote to show rating
add to favorites
×
Save as Personal and add changes to this tab that will be seen only by you. Learn more ›
×
You can save this tab as Personal to edit and correct it or add notes. All changes will be seen only by you. Learn more »
launch autoscroll
font size
0
reset
guitar tuner
edit
Autoscroll
slow
fast
+/-
esc
set tempo
stop
Author
Difficulty
The Front Bottoms - Wolfman

Tabbed by: Ash (XxThreeCheersxX)
E-mail: burdickash@gmail.com

Tuning: Standard

Intro
G|--------------------------------------------------------------------------|
D|---------3-3--3------------3-3--3-----------------------------------------|
A|-5--5--------------1--1--------------3--3----5-5--0----1--1----1-1--1--3--|
E|--------------------------------------------------------------------------|

Verse I 
G|--------------------------------------------------------------------------|
D|---------3-3--3------------3-3--3-----------------------------------------|
A|-5--5--------------1--1--------------3--3----5-5--0----1--1----1-1--1--3--|
E|--------------------------------------------------------------------------|

G|--------------------------------------------------------------------------|
D|---------3-3--3------------3-3--3-----------------------------------------|
A|-5--5--------------1--1--------------3--3----5-5--0----1--1----1-1--1--0--|
E|--------------------------------------------------------------------------|

Chorus (no bass)

Interlude
G|-----------------------------------------------------------------3-3-2-2-------|
D|---------3-3--3------------3-3--3----------------------------------------5--3--|
A|-5--5--------------1--1--------------3--3----5-5--0----1--1----1---------------|
E|-------------------------------------------------------------------------------|

Verse II
G|--------------------------------------------------------------------------|
D|---------3-3--3------------3-3--3-----------------------------------------|
A|-5--5--------------1--1--------------3--3----5-5--0----1--1----1-1--1--3--|
E|--------------------------------------------------------------------------|

G|--------------2--------------------------------------------------------------|
D|---------3-3-----3----------3-3----------------------------------------------|
A|-5--5---------------1--1---------1--0--3--3----5-5--0--3--1--1----1-1--1--3--|
E|-----------------------------------------------------------------------------|

Chorus (no bass)

Bridge 
G|-------------------------------------------------------------------------------------------------|
D|----------------------------------------------------------------------------------5--7--5--------|
A|-0--0--0--0--1--1--1--1--5--5--5--5--5--8--5--3--0--0--0--0--1--1--1--1--5--5--8-----------8--5--|
E|-------------------------------------------------------------------------------------------------|

G|-------------------------------------------------------------------------------------------------|
D|---------------------------------3-3-3-3-3-3-3-3-------------------------------------------------|
A|-0-0-0-0-0-0-0-0-1-1-1-1-1-1-1-1-----------------5-5-5-5-5-5-5-5-3-3-3-3-3-3-3-3-1--1~-----------|
E|-------------------------------------------------------------------------------------------------|

-break-

G|-----------------------------------------------------------|
D|--------------------------------------------------------3--|
A|-1-1-1-1-1-1-1-1-1-1-1-1-1-3--5-5-5-5-5-5-5-5-5-5-5-5-5----|
E|-----------------------------------------------------------|

G|-----------------------------------------------------------|
D|----------------------------------------------3-3-3-3-3-3--|
A|-1-1-1-1-1-1-1-1-1-1-1-1-1-3--5-5-5-5-5-5-5-5--------------|
E|-----------------------------------------------------------|

G|-------2-3-2--------2-3-2--------5-7-5-------5-7-5--|
D|----------------------------------------------------|
A|-1--1--------1--1----------5--5--------5--5---------|
E|----------------------------------------------------|

G|-------2-3-2--------2-3-2--------5-7-5--10-10-10-10-9-10-----|
D|---------------------------------------------------------10--|
A|-1--1--------1--1----------5--5------------------------------|
E|-------------------------------------------------------------|

"Nothing matters the importance of nothing"
G|---------------------------------------|
D|------------------------------------3--|
A|---------------------------------------|
E|---------------------------------------|

G|--------------------------------------------------------------|
D|----------------------------------------------3-3-3-3-3-3-3-3-|
A|-1-1-1-1-1-1-1-1-1-1-1-1-1-3--5-5-5-5-5-5-5-5-----------------|
E|--------------------------------------------------------------|

G|-----------------------------------------------------------|
D|--------------------------------------------------------3--|
A|-1-1-1-1-1-1-1-1-1-1-1-1-1-3--5-5-5-5-5-5-5-5-5-5-5-5-5----|
E|-----------------------------------------------------------|

G|--------------------------------------------------------------|
D|----------------------------------------------3-3-3-3---------|
A|-1-1-1-1-1-1-1-1-1-1-1-1-1-3--5-5-5-5-5-5-5-5-----------------|
E|------------------------------------------------------1-1-3-3-|

Outro
G|----------------------------------5--7--5--------|
D|-------------------------------7-----------7-----|
A|-1--1--1--1--1--1--3--3--5--8-----------------8--|
E|-------------------------------------------------|

(slow down here)
G|-------------------2--2--------------------------|
D|-------------------------0~----------------------|
A|-1--1--1--1--1--1--------------------------------|
E|-------------------------------------------------|

Happy playing!

| /  slide up
| \  slide down
| h  hammer-on
| p  pull-off
| ~  vibrato
| +  harmonic
| x  Mute note
===============================================================================

            
            
Suggest correction
Creating personal tab
Creating personal tab
You can edit any tab online and save it as your Personal.

You can edit, replace or remove any tab part or add personal notes – all changes will be seen only by you.

Personal tabs can be accessed anytime from any device, even offline.
Learn more »
Give kudos to tab author, rate the tab!
1 2 3 4 5
comments
print report bad tab
2 comments total.
0 reply
oliviajforney 10 Jun 01, 2017 02:01 PM

this all sounds correct but there is indeed bass during the chorus
!

guest
You may want to rate the tab now too:
select rating
Wanna post a correction for this tab? Suggest correction