Oops, an error
Loading. Please wait.

Wolfman tab

version 2
version 2

Whole song

  • This tab was written by ear from this version of W... Show more
2,324 views 1 this week
2 commentsread comments
1 2 3 4 5
x 3
add to favorites
×
Save as Personal and add changes to this tab that will be seen only by you. Learn more ›
×
You can save this tab as Personal to edit and correct it or add notes. All changes will be seen only by you. Learn more »
launch autoscroll
font size
0
reset
how to read this tab
guitar tuner
edit
Autoscroll
slow
fast
+/-
esc
set tempo
stop
Author
Difficulty
COMMENT SUGGESTIONS FOR THE FIRST VERSE OR CORRECTIONS ON THE TAB

INTRO:

e|----------------------------------------------------------------------------------------|
B|----------------------------------------------------------------------------------------|
G|----------------------------------------------------------------------------------------|
D|-----------------------------3----------------------------------------------------0-----|
A|---5--3--0--3--0-0--3--0--3-----3-----3-------3-----0-1-0------0------0-----0--3--------|
E|-----------------------------------1-----1-1-----1----------3----3-3-----3-----------1--|

VERSE ONE 
Deep and slow, that's how it goes
If anyone asks, yeah I already know
Cause I got this pain in my chest
Every time I swim to consciousness
And I misspelled every word perfectly
Every mistake made was purposely
And my head is pounding to the beat of my heart

[I COULDNT FIGURE THIS OUT IF YOU CAN PLEASE COMMENT YOUR SUGGESTION]

CHORUS:

/You are a broken heart tat/too, I'll have forever on my ches/t. For a love that I have lost 
But /never could for/get
e|---------------------------------------------------------------------------|
B|---------------------------------------------------------------------------|
G|---------------------------------------------------------------------------|
D|-3---------3-7---------10-3------------------------------------------------|
A|-1---------5-5---------8--1------------------------------------------------|
E|---------------------------------------------------------------------------|

INSTRUMENTAL:

e|----------------------------------------------------------------------------------------|
B|----------------------------------------------------------------------------------------|
G|----------------------------------------------------------------------------------------|
D|-----------------------------3----------------------------------------------------0-----|
A|---5--3--0--3--0-0--3--0--3-----3-----3-------3-----0-1-0------0------0-----0--3--------|
E|-----------------------------------1-----1-1-----1----------3----3-3-----3-----------1--|

Verse 2:

/Say what you have to say /Try not to cry. This is j/ust not what you wanted At /this point in your l/ife
e|---------------------------------------------------------------------------|
B|---------------------------------------------------------------------------|
G|---------------------------------------------------------------------------|
D|---------------------------------------------------------------------------|
A|--10---8---3---3---1-------------------------------------------------------|
E|--8----6---5---1---1-------------------------------------------------------|

It's so /hard to stay When all you want to /do is ride. I totally /get you, I was a bird/cage 
And /you were meant to /fly
e|-------------------------------------------------------------------------------|
B|-------------------------------------------------------------------------------|
G|-------------------------------------------------------------------------------|
D|-------------------------------------------------------------------------------|
A|--10---8---5---3---3---1-------------------------------------------------------|
E|--8----6---5---5---1---1-------------------------------------------------------|

/You are a broken heart tat/too, I'll have forever on my ches/t. For a love that I have lost 
But /never could for/get
e|---------------------------------------------------------------------------|
B|---------------------------------------------------------------------------|
G|---------------------------------------------------------------------------|
D|-3---------3-7---------10-3--1---------------------------------------------|
A|-1---------5-5---------8--1--1---------------------------------------------|
E|---------------------------------------------------------------------------|

            
            
Suggest correction
Creating personal tab
Creating personal tab
You can edit any tab online and save it as your Personal.

You can edit, replace or remove any tab part or add personal notes – all changes will be seen only by you.

Personal tabs can be accessed anytime from any device, even offline.
Learn more »
Give kudos to tab author, rate the tab!
1 2 3 4 5
comments
print report bad tab
2 comments total.
-1 reply
polarchimps 59 Sep 20, 2015 08:19 AM

Lack of accuracy. this tab is completely incorrect. completely and utterly, unarguably, undoubtedly, ridiculously, so so so so so so so so so so incorrect.

guest
You may want to rate the tab now too:
select rating
Wanna post a correction for this tab? Suggest correction