Oops, an error
Loading. Please wait.

Decent Days And Nights bass

version 1
version 1

Whole song

220 views 1 this week
no commentswrite comment
1 2 3 4 5
2 more votes to show rating
add to favorites
×
Save as Personal and add changes to this tab that will be seen only by you. Learn more ›
×
You can save this tab as Personal to edit and correct it or add notes. All changes will be seen only by you. Learn more »
launch autoscroll
font size
0
reset
guitar tuner
edit
Autoscroll
slow
fast
+/-
esc
set tempo
stop
Difficulty
intro pt. 1 (just bas and drums)
|-----------------------------------------------------------------------------|
|-----------------------------------------------------------------------------|
|--4-----------------2--------------0-----------------------------------------|
|-------------------------------------------------------------0---------------|
 this is a bran new problem         a problem without any clues

|-----------------------------------------------------------------------------|
|-----------------------------------------------------------------------------|
|--4-----------------2--------------0-----------------------------------------|
|-------------------------------------------------------0---------------------|
   if you know the clues         its easy to get through

intro pt.2 (with guitar)
|-----------------------------------------------------------------------------|
|-----------------------------------------------------------------------------|
|--4-----------------2--------------0-----------------------------------------|
|---------------------------------------------------0-------------------------|
  but you look confused and you don't know what to do

|--------------------------------------------------------------------------|
|--------------------------------------------------------------------------|
|--4-----------------2--------------0--------------------------------------|
|----------------------------------------------------0---------------------|
  It's hard to get an answer when you havn't got a clue

|--------------------------------------------------------------------------|
|--------------------------------------------------------------------------|
|----4------4------4-------2-------2-------2-------------------------------|
|--------------------------------------------------------------------------|
     If you work it out tell me what you find

main riff
|--------------------------------------------------------------------------|
|--------------------------------------------------------------------------|
|----------7--------7--------7------------7--------7-----------------------|
|---0------------------------------0---------------------0-----------------|

verse

If the least you can do is show some restraint.  (no bass for this line)

|--------------------------------------------------------------------------|
|--------------------------------------------------------------------------|
|------------4----------2---------0----------------------------------------|
|------------------------------------------0-------------------------------|
  Then the most you can do is get carried away (carried away)

|--------------------------------------------------------------------------|
|--------------------------------------------------------------------------|
|-------------------------4---------2----------0---------------------------|
|----------------------------------------------------------------0---------|
  but i can see that you look confused and you don't know what to do

chorus

|--------------------------------------------------------------------------|
|--------------------------------------------------------------------------|
|----------7-------7-------7--------------7-------7------------------------|
|----0-----------------------------0----------------------0----------------|
                                                         Say

|--------------------------------------------------------------------------|
|--------------------------------------------------------------------------|
|---------7--------7--------7-------------7--------7-----------------------|
|----0-----------------------------0-----------------------0---------------|
                                                        what you see

|--------------------------------------------------------------------------|
|--------------------------------------------------------------------------|
|---------7--------7--------7-------------7--------7-----------------------|
|----0-----------------------------0------------------------0--------------|             
                                            what you like

|--------------------------------------------------------------------------|
|--------------------------------------------------------------------------|
|---------7--------7--------7-------------7--------7-----------------------|
|----0-----------------------------0---------------------------------------|

|--------------------------------------------------------------------------|
|--------------------------------------------------------------------------|
|-----4-------4-------4-------4---------2-------2-------2-------2----------|
|--------------------------------------------------------------------------|
 if you work it out tell me what you find

|--------------------------------------------------------------------------|
|--------------------------------------------------------------------------|
|---------7--------7--------7-------------7--------7-----------------------|
|----0-----------------------------0---------------------------------------|


|--------------------------------------------------------------------------|
|--------------------------------------------------------------------------|
|-----4-------4-------4-------4---------2-------2-------2-------2----------|
|--------------------------------------------------------------------------|
Then we'll have a few decent days and nights

            
            
Suggest correction
Creating personal tab
Creating personal tab
You can edit any tab online and save it as your Personal.

You can edit, replace or remove any tab part or add personal notes – all changes will be seen only by you.

Personal tabs can be accessed anytime from any device, even offline.
Learn more »
Give kudos to tab author, rate the tab!
1 2 3 4 5
comments
print report bad tab
guest
Wanna post a correction for this tab? Suggest correction