Oops, an error
Loading. Please wait.

Hounds Of Love Tab

version 1
version 1

Whole song

Interactive

11,061 views 9 this week
2 commentsread comments
1 2 3 4 5
x 8
add to favorites
launch autoscroll
font size
0
reset
how to read this tab
guitar tuner
×
Best way to learn
"Hounds Of Love"
Autoscroll
slow
fast
+/-
esc
set tempo
stop
The Futureheads - Hounds of love


When I was a child, running in the night, i was afraid of what might be
Hiding in the dark and hiding on the street, and of what was following me

e----------------------------------|
B----------------------------------|
G----------9999999-7777777-6666666-|
D--7777777-9999999-7777777-6666666-| REPEAT
A--7777777-7777777-5555555-4444444-|
E--5555555-------------------------|

The hounds of love are calling
I've always been a coward, and I don't know what's good for me
e---------------------------------------------5---|
B----------------------------------------------5--|
G-11--6--7--6--11--7--6--7--11--7--6--7777------6-|
D-11--6--7--6--11--7--6--7--11--7--6--7777--7-----|
A-9 --4--5--4--9 --5--4--5--9 --5--4--5555--7-----|
E-------------------------------------------5-----|

Well here I go,it's coming at me through the trees
Help me, someone, help me, please
Take my shoes off, and i will throw them in the lake, and I will be,
two steps on the water
I found a fox, who was caught by dogs, he let me take him in my hands
His little heart, it beat so fast
And I'm ashamed to be running away
From nothing real, i just can't deal with this
I feel ashamed to be there

e---------------------------------------------|
B---------------------------------------------|
G----------9999999-7777777-6666666------------|
D--7777777-9999999-7777777-6666666 REPEAT x 7-|
A--7777777-7777777-5555555-4444444------------|
E--5555555------------------------------------|

Among your hounds of loving
And feel your arms surround me
I've always been a coward, and i dont know what's good for me
e---------------------------------------------------------5---|
B----------------------------------------------------------5--|
G-11--6--7--6--11--7--6--7--11--7--6--11--7--6----7777------6-|
D-11--6--7--6--11--7--6--7--11--7--6--11--7--6----7777--7-----|
A-9 --4--5--4--9 --5--4--5--9 --5--4--9 --5--4----5555--7-----|
E-------------------------------------------------------5-----|

Oh, here I go, don't let me go, hold me down
It's coming at me through the trees
Help me, someone, help me, please
Take my shoes off, and i will throw them in the lake, and I will be,
two steps on the water
And I will be, two steps on the water
Do you know what I need, do you know what I need,
i need love love love love love,yeah
Take your shoes off, and throw them in the lake,
and I will be, two steps on the water
Do you know what I need, do you know what I need,
i need love love love love love, yeah
Do you know what I need, do you know what I need,
i need love love love love love, yeah
e----------------------------------                         -----|
B----------------------------------                         -----|
G----------9999999-7777777-6666666-                          ----|
D--7777777-9999999-7777777-6666666- REPEAT x 12 then end on -7---|
A--7777777-7777777-5555555-4444444-                         -7---|
E--5555555-------------------------                         -5---|

This is an excellent cover of an excellent song. I'm 100% sure its perfect....i worked 
out in seconds and then refined it. Enjoy. Any question/problems.. email me irish_influences@hotmail.com
Suggest correction
comments
print report bad tab
2 comments total.
0 reply
FreedomFighter 102 Feb 08, 2005 07:00 PM

I'd say that's very ***ing accurate. Well done. :d

0 reply
bobjewell87 251 Feb 22, 2005 07:00 PM

well after the intro part, lead guitar comes in with

e-9--7-5-4
B-10-9-7-5
G-11-9-7-6
D---------
A---------
E---------

nice tab though

guest
You may want to rate the tab now too:
select rating
Wanna post a correction for this tab? Suggest correction