Oops, an error
Loading. Please wait.

Sal Paradise Bass Tab

1,960 views 1 this week
no commentswrite comment
1 2 3 4 5
please rate
add to favorites
launch autoscroll
font size
0
reset
guitar tuner
Tab Pro tools
  • play this tab
  • loop segment
  • change instrument
  • show fretboard
  • metronome
Autoscroll
slow
fast
+/-
esc
set tempo
stop
Contributor
Difficulty
novice
Title: Sal Paradise
Artist: Futures
Album: The Holiday
Website: http://wearefutures.co.uk/

Tabbed by Hazel (lezahtherock). Email: latetoo00@hotmail.com

Tuning: Drop Db 

Intro/ First Verse:

    1 + 2 + 3 + 4 +   1 + 2 + 3 + 4 +   1 + 2 + 3 + 4 +   1 + 2 + 3 + 4 + 
Gb|-----------------|-----------------|-----------------|-----------------|
Db|-----------------|-----------------|-----------------|-----------------|
Ab|-4-4---4-4-------|-----------------|-0-0---0-0---2---|-4-4---4-4---2---| x5
Db|-------------1---|-2-2---2-2---6---|-----------------|-----------------|

First Chorus:
    1 + 2 + 3 + 4 +   1 + 2 + 3 + 4 +   1 + 2 + 3 + 4 +   1 + 2 + 3 + 4 + 
Gb|-----------------|-----------------|-----------------|-----------------|
Db|-----------------|-----------------|-----------------|-2~--------------|
Ab|-0~--------------|-----------------|-4~--------------|-----------------|
Db|-----------------|-2~--------------|-----------------|-----------------|

    1 + 2 + 3 + 4 +   1 + 2 + 3 + 4 +   1 + 2 + 3 + 4 +   1 + 2 + 3 + 4 + 
Gb|-----------------|-----------------|-----------------|-----------------|
Db|/7~--------------|\2~--------------|/9~--------------|-----------------|
Ab|-----------------|-----------------|-----------------|-----------------|
Db|-----------------|-----------------|-----------------|-----------------|

Second Verse:

    1 + 2 + 3 + 4 +   1 + 2 + 3 + 4 +   1 + 2 + 3 + 4 +   1 + 2 + 3 + 4 + 
Gb|-----------------|-----------------|-----------------|-----------------|
Db|-----------------|-----------------|-----------------|-----------------|
Ab|-4-4-4-4-4-4-4---|-----------------|-0-0-0-0-0-0-0-0-|-0-0-0-0-0-0-0-2-|
Db|---------------1-|-2-2-2-2-2-2-2-6-|-----------------|-----------------|

    1 + 2 + 3 + 4 +   1 + 2 + 3 + 4 +   1 + 2 + 3 + 4 +   1 + 2 + 3 + 4 + 
Gb|-----------------|-----------------|-----------------|-----------------|
Db|-----------------|-----------------|-----------------|-----------------|
Ab|-4-4-4-4-4-4-4---|-----------------|-0-0-0-0-0-0-0-0-|-0-0-0-0-0-6-6-4-|
Db|---------------1-|-2-2-2-2-2-2-2-6-|-----------------|-----------------|

    1 + 2 + 3 + 4 +   1 + 2 + 3 + 4 +   1 + 2 + 3 + 4 +   1 + 2 + 3 + 4 + 
Gb|-----------------|-----------------|-----------------|-----------------|
Db|-----------------|-----------------|-----------------|-----------------|
Ab|-4-4-4-4-4-4-4-6-|-7-7-7-7-7-7-7---|-----------------|-----------6-6-4-|
Db|-----------------|---------------6-|-7-7-7-7-7-7-7-7-|-7-7-7-7-7-------|

    1 + 2 + 3 + 4 +   1 + 2 + 3 + 4 +   1 + 2 + 3 + 4 +   1 + 2 + 3 + 4 + 
Gb|-----------------|-----------------|-----------------|-----------------|
Db|-----------------|-----------------|-----------------|-----------------|
Ab|-4-4-4-4-4-4-4-6-|-7-7-7-7-7-7-7---|-----------------|-----------------|
Db|-----------------|---------------6-|-7-7-7-7-7\2-2-2-|-2-2-2-2-2-2-2-2-|

Second Chorus:

    1 + 2 + 3 + 4 +   1 + 2 + 3 + 4 +   1 + 2 + 3 + 4 +   1 + 2 + 3 + 4 + 
Gb|-----------------|-----------------|-----------------|-----------------|
Db|-----------------|-----------------|-----------------|-----------------|
Ab|-0-0-0-0-0-0-0---|-----------------|-4-4-4-4-4-4-4-4-|-----------------|
Db|---------------6-|-2-2-2-2-2-2-2-2-|-----------------|-2-2-2-2-2-2-2-2-|

    1 + 2 + 3 + 4 +   1 + 2 + 3 + 4 +   1 + 2 + 3 + 4 +   1 + 2 + 3 + 4 + 
Gb|-----------------|-----------------|-----------------|-----------------|
Db|-----------------|-----------------|-----------------|-----------------|
Ab|-0-0-0-0-0-0-0---|---------------4-|-2-2-2-2-2-2-2-2-|-2-2-2-2-2-2-2-2-|
Db|---------------6-|-2-2-2-2-2-2-2---|-----------------|-----------------|


    1 + 2 + 3 + 4 +   1 + 2 + 3 + 4 +   1 + 2 + 3 + 4 +   1 + 2 + 3 + 4 + 
Gb|-----------------|-----------------|-----------------|-----------------|
Db|-----------------|-----------------|-----------------|-----------------|
Ab|-0-0-0-0-0-0-0---|-----------------|-4-4-4-4-4-4-4-4-|-----------------|
Db|---------------6-|-2-2-2-2-2-2-2-2-|-----------------|-2-2-2-2-2-2-2-2-|

    1 + 2 + 3 + 4 +   1 + 2 + 3 + 4 +   1 + 2 + 3 + 4 +   1 + 2 + 3 + 4 + 
Gb|-----------------|-----------------|-----------------|-----------------|
Db|-----------------|-----------------|-----------------|/9-9-9-9-9-9-9-9-|
Ab|-0-0-0-0-0-0-0---|---------------4-|-2-2-2-2-2-2-2-/-|-----------------|
Db|---------------6-|-2-2-2-2-2-2-2---|-----------------|-----------------|

Instrumental:

    1 + 2 + 3 + 4 +   1 + 2 + 3 + 4 +   1 + 2 + 3 + 4 +   1 + 2 + 3 + 4 + 
Gb|-----------------|-----------------|-----------------|-----------------|
Db|-----------------|-----------------|-----------------|-4-4-4-4-4-4-4-4-|
Ab|-0-0-0-0-0-0-0-0-|-4-4-4-4-4-4-4-4-|-----------------|-----------------|
Db|-----------------|-----------------|-2-2-2-2-2-2-2-2-|-----------------|

    1 + 2 + 3 + 4 +   1 + 2 + 3 + 4 +   1 + 2 + 3 + 4 +   1 + 2 + 3 + 4 + 
Gb|-----------------|-----------------|-----------------|-----------------|
Db|-----------------|-----------------|-2-2-2-2-2-2-2-2-|-4-4-4-4-4-2-4-4-|
Ab|-0-0-0-0-0-0-0-0-|-4-4-4-4-4-4-4-4-|-----------------|-----------------|
Db|-----------------|-----------------|-----------------|-----------------|

Final Chorus:

    1 + 2 + 3 + 4 +   1 + 2 + 3 + 4 +   1 + 2 + 3 + 4 +   1 + 2 + 3 + 4 + 
Gb|-----------------|-----------------|-----------------|-----------------|
Db|-----------------|-----------------|-----------------|-----------------|
Ab|-0-----0---0-0-0-|-----------------|-4-----4---4-4-4-|-----------------|
Db|-----------------|-2-----2---2-2-2-|-----------------|-2-----2---2-2-2-|

    1 + 2 + 3 + 4 +   1 + 2 + 3 + 4 +   1 + 2 + 3 + 4 +   1 + 2 + 3 + 4 + 
Gb|-----------------|-----------------|-----------------|-----------------|
Db|-----------------|-----------------|-----------------|-----------------|
Ab|-0-----0---0-0---|-----------------|-2~--------------|-----------------|
Db|---------------6-|-2-----2---2-2-2-|-----------------|-----------------|

    1 + 2 + 3 + 4 +   1 + 2 + 3 + 4 +   1 + 2 + 3 + 4 +   1 + 2 + 3 + 4 + 
Gb|-----------------|-----------------|-----------------|-----------------|
Db|-----------------|-----------------|-----------------|-----------------|
Ab|-0-0-0-0-0-0-0---|-----------------|-4-4-4-4-4-4-4-4-|-----------------|
Db|---------------6-|-2-2-2-2-2-2-2-2-|-----------------|-2-2-2-2-2-2-2-2-|


    1 + 2 + 3 + 4 +   1 + 2 + 3 + 4 +   1 + 2 + 3 + 4 +   1 + 2 + 3 + 4 + 
Gb|-----------------|-----------------|-----------------|-----------------|
Db|-----------------|-----------------|-----------------|/9-9-9-9-9-9-9-9-|
Ab|-0-0-0-0-0-0-0---|---------------4-|-2-2-2-2-2-2-2-/-|-----------------|
Db|---------------6-|-2-2-2-2-2-2-2---|-----------------|-----------------|

    1 + 2 + 3 + 4 +   1 + 2 + 3 + 4 +   1 + 2 + 3 + 4 +   1 + 2 + 3 + 4 + 
Gb|-----------------|-----------------|-----------------|-----------------|
Db|-----------------|-----------------|-----------------|-----------------|
Ab|-0-0-0-0-0-0-0---|-----------------|-4-4-4-4-4-4-4-4-|-----------------|
Db|---------------6-|-2-2-2-2-2-2-2-2-|-----------------|-2-2-2-2-2-2-2-2-|

    1 + 2 + 3 + 4 +   1 + 2 + 3 + 4 +   1 + 2 + 3 + 4 +   1 + 2 + 3 + 4 + 
Gb|-----------------|-----------------|-----------------|-----------------|
Db|-----------------|-----------------|-----------------|/9-9-9-9-9-9-9-9-|
Ab|-0-0-0-0-0-0-0---|---------------4-|-2-2-2-2-2-2-2-/-|-----------------|
Db|---------------6-|-2-2-2-2-2-2-2---|-----------------|-----------------|


    1 + 2 + 3 + 4 +   1 + 2 + 3 + 4 +   1 + 2 + 3 + 4 +   1 + 2 + 3 + 4 + 
Gb|-----------------|-----------------|-----------------|-----------------|
Db|-----------------|-----------------|-----------------|-----------------|
Ab|-0-0-0-0-0-0-0---|-----------------|-4-4-4-4-4-4-4-4-|-----------------|
Db|---------------6-|-2-2-2-2-2-2-2-2-|-----------------|-2-2-2-2-2-2-2-2-|

    1 + 2 + 3 + 4 +   1 + 2 + 3 + 4 +   1 + 2 + 3 + 4 +   1 + 2 + 3 + 4 + 
Gb|-----------------|-----------------|-----------------|-----------------|
Db|-----------------|-----------------|-----------------|-----------------|
Ab|-0-0-0-0-0-0-0---|---------------4-|-2-2-2-2-2-2-2-2-|-2-2-2-2-2-2-2-2-|
Db|---------------6-|-2-2-2-2-2-2-2---|-----------------|-----------------|

    1 + 2 + 3 + 4 + 
Gb|-----------------|
Db|-----------------|
Ab|-0~--------------|
Db|-----------------|
comments
We did not receive enough feedback on this tab! Please rate:
print report bad tab
1 2 3 4 5
I want to post or [tab]
guest
You may want to rate the tab now too:
select rating
Please do not post tabs as comments. Select "correction" instead!