Oops, an error
Loading. Please wait.

When We Were Kids tab

2,754 views 1 this week
2 commentsread comments
1 2 3 4 5
1 last vote to show rating
add to favorites
×
Save as Personal and add changes to this tab that will be seen only by you. Learn more ›
×
You can save this tab as Personal to edit and correct it or add notes. All changes will be seen only by you. Learn more »
launch autoscroll
font size
0
reset
how to read this tab
guitar tuner
edit
Autoscroll
slow
fast
+/-
esc
set tempo
stop
Author
This is my first tab, be nice =]


Chords Used in Chorus

   F   G   E   Bb
e|----------------|
b|----------------|
g|---------14--15-|
d|-15--17--14--13-|
a|-13--17--12--13-|
e|-13--15---------|


Intro

repeat a few times
e|-13-13-------13-13-13----------------------------|       |----|
b|----------------------16-16-15-15-------13-13-13-|       |----|
g|-------15-15----------------------15-15----------|       |-15-|
d|-------------------------------------------------|       |----|
a|-------------------------------------------------|       |----|
e|-------------------------------------------------|end on |----|



Verse Part 1
Others say you'd come this friday night
I still thought we were kids
(I still thought we were kids)
And now your growing up so fast 
It's making my head spin


Verse part 2
And tonight we won't get drunk and kiss
'Cause that was when we were kids
(that was when we were kids)
You I don't want things to change
How did I end up in a place like this


play this twice throught verse part 2
e|------------------------------13----------------------------|
b|-15------------13-------------------------------------------|
g|---------------------------------------------15-------------|
d|------------------------------------------------------------|
a|------------------------------------------------------------|
e|------------------------------------------------------------|
   And...         won't...       kiss...        kids




Chorus

F                             
  I always thought we'd be that young forever

G                A         Bb            F
   Wah-oh-oh-oh  (Remember when we were kids)


I like to think back when the times were better

G                A         Bb            F
   Wah-oh-oh-oh  (Remember when we were kids)





Guitar Solo
                                                          
e|-------------13--15---17-18-20-17-20-21-22---20--18--17b-17b-17b-17b-|
b|-----13--15----------------------------------------------------------|
g|-15------------------------------------------------------------------|
d|---------------------------------------------------------------------|
a|---------------------------------------------------------------------|
e|---------------------------------------------------------------------|


Verse Part 1
You said that we could still be friends 
When school was out
(When school was out)
I went to meet you down the coast
But you weren't a-round

Verse Part 2
And now your seeing other guys
And I suppose that's fine
(And i suppose thats fine)
Ev-ryones moving on so fast
I'm getting left behind




Repeat Chorus x 2


Verse 3

And all my closest friends 
Have moved overseas
(They've moved overseas)
And now im stuck in a town 
With just not enough kids
To try and make a scene oh!


Verse part 3

do you remember when we were kids
do you remember when we were kids
(oh do ya, oh do ya)

1st time
   p.m............................
e|---------------------------------|
b|---------------------------------|
g|---------------------------------|
d|-3-3-3-3-3-3-3-5-5-5-5-5-5-5-5-5-|
a|-3-3-3-3-3-3-3-5-5-5-5-5-5-5-5-5-|
e|-1-1-1-1-1-1-1-3-3-3-3-3-3-3-3-3-| play that 4 times
                                     slowly release palm mute on fourth time


oh do you remember when we were kids
oh do you remember when we were kids.
(oh do you, oh do you)

2nd time

e|-------------------------------------------------|
b|-------------------------------------------------|
g|-------------------------------------------------|
d|----------------------------------14-14-14-15-15-|
a|-15-15-15-15-15-15-15-15-17-17-17-12-12-12-13-13-|
e|-13-13-13-13-13-13-13-13-15-15-15----------------| play that 4 times


Guitar Solo 2

e|-13-13-------13-13-13----------------------------|
b|----------------------16-16-15-15-------13-13-13-|
g|-------15-15----------------------15-15----------|
d|-------------------------------------------------|
a|-------------------------------------------------|
e|-------------------------------------------------|

e|-13-13-------13-13-13--------------|
b|----------------------13--15--13---|
g|-------15-15-----------------------|
d|-----------------------------------|
a|-----------------------------------|
e|-----------------------------------|

e|-13-13-------13-13-13----------------------------|
b|----------------------16-16-15-15-------13-13-13-|
g|-------15-15----------------------15-15----------|
d|-------------------------------------------------|
a|-------------------------------------------------|
e|-------------------------------------------------|

                         slide slowly while picking
e|-13-13-------13-13-13--13//////////////////////22-|
b|--------------------------------------------------|
g|-------15-15--------------------------------------|
d|--------------------------------------------------|
a|--------------------------------------------------|
e|--------------------------------------------------|


Play Chorus once through

e|----|-------------------------------|
b|----|-------------------------------|
g|----|-------------------------------|
d|-15-|-(15)--------------------------|
a|-15-|-(15)--------------------------|
e|-13-|-(13)--------------------------|
       Remember when we were kids...




And thats about it

Now go buy The Galvatrons EP

=]


official website of The Galvatrons - http://www.youtube.com/galvatrontv

            
            
Suggest correction
Creating personal tab
Creating personal tab
You can edit any tab online and save it as your Personal.

You can edit, replace or remove any tab part or add personal notes – all changes will be seen only by you.

Personal tabs can be accessed anytime from any device, even offline.
Learn more »
Give kudos to tab author, rate the tab!
1 2 3 4 5
comments
print report bad tab
2 comments total.
+1 reply
Altarian 10 May 12, 2009 12:24 AM

WRONG!!!!!
for starters.... Johnnys guitar is in drop d...
second of all, in the intro it is:
e|------------13-13-13-13-11-11-10-10---------------|
b|------11-11-------------------------11-11-13-13---|
g|10-10---------------------------------------------|
d|--------------------------------------------------|
a|--------------------------------------------------|
e|--------------------------------------------------|

email: altariannamasco@hotmail.com for more galvatrons guitar tabs :)

0 reply
Team_Nitro 64 Apr 13, 2011 07:05 PM

I dunno guys, there both good.
But I play this one on acoustic and it sounds pretty good.

E|-------------------------13--11-11-11-10-10-------------|
B|------------------11-11----------------------11-11-13-13|
G|-----------10-10----------------------------------------|
D|------8-8-----------------------------------------------|
A|--------------------------------------------------------|
E|--------------------------------------------------------|

You can still mix it up and do heaps of crazy stuff with it.
Like playing 2nd time through instead of 8-8 10-10, you can play 10-10 so its 10-10D 10-10G.

You can also at the end instead of 11-11-13-13 you can bend from 13b-11. Its just a cool little bend, dig it.

T3Am_N|tr0
>_

guest
You may want to rate the tab now too:
select rating
Wanna post a correction for this tab? Suggest correction