Oops, an error
Loading. Please wait.

Cuanto Te Amo Tab

29 views 1 this week
no commentswrite comment
1 2 3 4 5
3 more votes to show rating
add to favorites
launch autoscroll
font size
0
reset
how to read this tab
guitar tuner
Autoscroll
slow
fast
+/-
esc
set tempo
stop
Help us to improve Ultimate-Guitar.com Take our survey!
×
INTRO

   Gm
e)-3-3----------3--
b)-3---3-3----3----
G)-3--------3------
D)-----------------
A)--------5--------
E)-3--------------- x2

VERSO

   Gm
e)-3-3----------3--
b)-3---3-3----3----
G)-3--------3------
D)-----------------
A)--------5--------
E)-3---------------

   Bb
e)-1-1-----------1--
b)-3---3-3-----3----
G)-3---------3------
D)------------------
A)-1-------1--------
E)------------------

   Cm
e)-3-3-----------3--
b)-4---4-4-----4----
G)-5---------5------
D)------------------
A)-3-------3--------
E)------------------

   Eb             D
e)-3-3---------3--2--
b)-4---4-4---4----3--
G)-3-------3------2--
D)-------------------
A)-------------------
E)-------------------

Gm                       Bb
Cuando Las Manos Tuyas Quieren Tocar Las Mias
Cm                    Eb           D
Cuando La Realidad Se Vuelve Fantasía

Gm                      Bb
Cuando En Un Solo Dia Tengo La Eternidad
Cm                      Eb        D
Y Se Ase Compania Mi Triste Soledad

G                                  Cm
Cuanto Te Amo Cuanto Te Amo No Lo Vez
F                        Bb        D
Cuanto Te Amo Cuanto Te Amo No Lo Vez (Riff)
G                                  Cm
Cuanto Te Amo Cuanto Te Amo No Lo Vez
F                        Bb        D
Cuanto Te Amo Cuanto Te Amo No Lo Vez


ACORDION: Gm - Bb - Eb - D  (x2)

e)--------------------
b)-3-3-1-1---------1--
G)---------3-3-2-3----
D)--------------------
A)--------------------
E)--------------------

e)-------------------3--2--
b)-3-3-1-1---------1-------
G)---------3-3-2-3---------
D)-------------------------
A)-------------------------
E)-------------------------


Gm                        Bb
Cuando Los Años Pasen Y Allas Vivido Tu
Cm                         Eb          D
Cuando Ya No Me Abrase Tu Tierna Juventud
Gm                          Bb
Cuando De Aquella Sonrisa Nada Nos Quede Ya
Cm                         Eb         D
Siempre Que Tenga Vida Mi Canto Te Dira

ACORDION: Gm - Bb - Eb - D  (x2)

e)--------------------
b)-3-3-1-1---------1--
G)---------3-3-2-3----
D)--------------------
A)--------------------
E)--------------------

e)-------------------3--2--
b)-3-3-1-1---------1-------
G)---------3-3-2-3---------
D)-------------------------
A)-------------------------
E)-------------------------

G                                 Cm
Cuanto Te Amo Cuanto Te Amo No Lo Vez
F                       Bb         D
Cuanto Te Amo Cuanto Te Amo No Lo Vez (Riff)
 G                                 Cm
Cuanto Te Amo Cuanto Te Amo No Lo Vez
F                       Bb         D
Cuanto Te Amo Cuanto Te Amo No Lo Vez
Suggest correction
Give kudos to tab author, rate the tab!
1 2 3 4 5
comments
print report bad tab
guest
You may want to rate the tab now too:
select rating
Wanna post a correction for this tab? Suggest correction