Oops, an error
Loading. Please wait.

1930 Bass Tab

version 1
version 1

Whole song

Interactive

4,744 views 6 this week
no commentswrite comment
1 2 3 4 5
excellent!
x 3
add to favorites
launch autoscroll
font size
0
reset
guitar tuner
Autoscroll
slow
fast
+/-
esc
set tempo
stop
Help us to improve Ultimate-Guitar.com Take our survey!
×
Author
Band: Gaslight Anthem
Album: Sink or Swim
Song: 1930

Please rate

Tuning: drop d

If the drop d is annoying you, 
use standard tuning and
simply play exactly the same 
fret numbers but on the other, 
higher ocatve, d string

Intro:

G|----------------------------------|
D|----------------------------------| 
A|----------------------------------| 
D|-5-5-5-5-5-5-5-5/8-8-8-8-3-3-3-3--|

G|----------------------------------|
D|----------------------------------| 
A|----------------------------------| 
D|-5-5-5-5-5-5-5-5/8-8-----3-3-3-3--|

G|----------------------------------|
D|----------------------------------| 
A|----------------------------------| 
D|-5-5-5-5-5-5-5-5/8-8-8-8-3-3-3-3--|

G|----------------------------------|
D|----------------------------------| 
A|----------------------------------| 
D|-8-8-8-8-8-8-8-8\3-3-3-3-3-3-3-3--|

G|----------------------------------|
D|----------------------------------| 
A|----------------------------------| 
D|-5-5-5-5-5-5-5-5/8-8-8-8-3-3-3-3--|

G|----------------------------------|
D|----------------------------------| 
A|----------------------------------| 
D|-5-5-5-5-5-5-5-5/8-8---8-3-3-3-3--|

G|------------------------------------|
D|------------------------------------| 
A|------------------------------------| 
D|-5-5-5-5-5-5-5-5/8-8-8-8-3-3-3-3-5.-|

Pause

G|--------------------|
D|--------------------| 
A|--------------------| 
D|-3-3---3---3---3----|


Verse (0:22)

G|-----------------------------------|
D|-----------------------------------| 
A|-----------------------------------| x2
D|-5555----1111----8888----3333------|

(0:42)

G|-----------------------------------|
D|-----------------------------------| 
A|-----------------------------------| 
D|-55555555555555551111111111111111--|

G|-----------------------------------|
D|-----------------------------------| 
A|-----------------------------------| 
D|-88888888888888883333333333333333--|

G|-----------------------------------|
D|-----------------------------------| 
A|-----------------------------------| 
D|-55555555555555551111111111111111--|

G|-----------------------------------|
D|-----------------------------------| 
A|-----------------------------------| 
D|-88888888888888883333333333333333--|


Pre chorus (1:03)

G|-----------------------------------|
D|-----------------------------------| 
A|-----------------------------------| 
D|-5---5-5\3-3-3\1---1-1-1-1-1-1-1---|

G|-----------------------------------|
D|-----------------------------------| 
A|-----------------------------------| 
D|-5---5-5/8-8-8\1---1-1-1-1-1-1-1---|

G|-----------------------------------|
D|-----------------------------------| 
A|-----------------------------------| 
D|-5---5-5\3-3-3\1---1-1-1-1-1-1-1---|


G|------------------|
D|------------------| 
A|------------------| 
D|-3-3-3-3-3-3-3-3--|

Chorus (1:12)

G|----------------------------------|
D|----------------------------------| 
A|----------------------------------| 
D|-8-888888-88888883-333333-3333333-|

G|----------------------------------|
D|----------------------------------| 
A|----------------------------------| 
D|-5-555555-55555551-111111-1111111-|

G|----------------------------------|
D|----------------------------------| 
A|----------------------------------| 
D|-8-888888-88888883-333333-3333333-|

G|------------------------------------------------|
D|------------------------------------------------| 
A|------------------------------------------------| 
D|-5-555555-55555551~--------------1~---------111-|

Verse (1:36)

G|-----------------------------------|
D|-----------------------------------| 
A|-----------------------------------| 
D|-5555----1111----8888----3333------|

G|-----------------------------------|
D|-----------------------------------| 
A|-----------------------------------| 
D|-5555----1111----8888----3.--------|

Drum roll then:

(1:57)

G|-----------------------------------|
D|-----------------------------------| 
A|-----------------------------------| 
D|-55555555555555551111111111111111--|

G|-----------------------------------|
D|-----------------------------------| 
A|-----------------------------------| 
D|-88888888888888883333333333333333--|

G|-----------------------------------|
D|-----------------------------------| 
A|-----------------------------------| 
D|-55555555555555551111111111111111--|

G|-----------------------------------|
D|-----------------------------------| 
A|-----------------------------------| 
D|-88888888888888883333333333333333--|


Pre chorus (2:17)

G|-----------------------------------|
D|-----------------------------------| 
A|-----------------------------------| 
D|-5---5-5\3-3-3\1---1-1-1-1-1-1-1---|

G|-----------------------------------|
D|-----------------------------------| 
A|-----------------------------------| 
D|-5---5-5/8-8-8\1---1-1-1-1-1-1-1---|

G|-----------------------------------|
D|-----------------------------------| 
A|-----------------------------------| 
D|-5---5-5\3-3-3\1---1-1-1-1-1-1-1---|

G|------------------|
D|------------------| 
A|------------------| 
D|-3-3-3-3-3-3-3-3--|

Chorus (2:26)

G|----------------------------------|
D|----------------------------------| 
A|----------------------------------| 
D|-8-888888-88888883-333333-3333333-|

G|----------------------------------|
D|----------------------------------| 
A|----------------------------------| 
D|-5-555555-55555551-111111-1111111-|

G|----------------------------------|
D|----------------------------------| 
A|----------------------------------| 
D|-8-888888-88888883-333333-3333333-|

G|------------------------------------------------|
D|------------------------------------------------| 
A|------------------------------------------------| 
D|-5-555555-55555551~--------------1~---------111-|

Pause then

Ending: (3:02)

G|-----------------------------------|
D|-----------------------------------| 
A|-----------------------------------| 
D|-8~------3~------5~----------------|

G|-----------------------------------|
D|-----------------------------------| 
A|-----------------------------------| 
D|-8~------3~------1111111111111111--|

I love you more… (3:13)

G|-----------------------------------|
D|-----------------------------------| 
A|-----------------------------------| 
D|-88888888333333335555555555555555--|

G|-----------------------------------|
D|-----------------------------------| 
A|-----------------------------------| 
D|-88888888333333331111111111111111--|

G|-----------------------------------|
D|-----------------------------------| 
A|-----------------------------------| 
D|-88888888333333335555555555555555--|

G|-------------------------------------|
D|-------------------------------------| 
A|-------------------------------------| 
D|-88888888333333331111111111111111-8~-|
Suggest correction
Give kudos to tab author, rate the tab!
1 2 3 4 5
comments
print report bad tab
guest
You may want to rate the tab now too:
select rating
Please do not post tabs as comments. Select "correction" instead!