Oops, an error
Loading. Please wait.

45 Tab

version 2
version 2

Acoustic

Whole song

Interactive

6,897 views 12 this week
no commentswrite comment
1 2 3 4 5
3 more votes to show rating
add to favorites
launch autoscroll
font size
0
reset
how to read this tab
guitar tuner
Autoscroll
slow
fast
+/-
esc
set tempo
stop
Help us to improve Ultimate-Guitar.com Take our survey!
×
Author
Difficulty
novice
This is an acoustic fingerpicked version of “45” as performed by Brian Fallon in a radio
interview, it is tuned in Gaslight standard (Whole Step Down-DGCFAd), No capo, I’m not
great with tabbing fingerpickng so this is just a guide, feel free to play with it and 
find your own groove…enjoy
P.S. I found the interview at http://www.youtube.com/watch?v=4X093uODlzE   and the song
starts at about 4:00 mins in.

Chords Used
         DGCFAd
E*  779997
B   224442
C#m 446654
A   002220
E   022100
E5  024400
G#m 466444

Intro
d|-------------------------------------------------|
A|-------------------------------------------------|
F|------4-------4------------------4-----------8/9-|
C|----2---2---2--2------X 3------2---2---2---------|
G|--4-------2------2-----------4-------2-------6/7-|
D|-------------------------------------------------|

Verse
  E*                 B  C#m
|------------------------------------------|
|-----9---------9----4/-----5---------5--5/|
|-9---9---9-9---9----4/-6---6---6-6---6--6/|
|------------------------------------------|
|-7-7---7---7-7------2/-4-4---4---4-4----4/|
|------------------------------------------|  x3

E*                      B C#m
Have you seen my hands?
                        E*
Just look at 'em shake.
                                      B   C#m
And the song just keeps on repeating,
                       E*
Drop the needle again.
                             B C#m
And I dance with your ghost,

Oh, but that ain't the way...


Pre Chorus
   A                   E
d|--------------------------------------|
A|-----2---------2---------0---------0--|
F|-2---2---2-2---2-----1---1---1-1---1--|
C|--------------------------------------|
G|-0-0---0---0-0-------2-2---2---2-2----|
D|--------------------------------------|
A                                    E
I can't move on and I can't stay the same
But all my friend say...

Chorus
   C#m              A               E               E5
d|---------------------------------------------------------------------|
A|------5-------5-------2-------2-------0-------0-------0-------0------|
F|------6-------6-------2-------2-------1-------1-------4-------4------|
C|----6---6---6---6---2---2---2---2---2---2---2---2---4---4---4---4----|
G|--4-------4-------0-------0-------2-------2-------2-------2----------|
D|---------------------------------------------------------------------|
C#m  A   E    E5
Heeeeeey hey, turn the record over.
C#m  A   E             E5
Heeeeeey hey, and I'll see you on the flip side.
C#m       A   E                E5
There you go, turn the key and engine over.
C#m     A   E            E5
Let her go, let somebody else lay at her feet."

Intro

Verse
Have you seen my heart,
Have you seen how it bleeds?
And the nights are so long, baby,
Out here in the deep.
The tick, ticking of hours, lonely.
I hear the alarm
I used to hear when she would sleep in my arms.

Pre-Chorus
But "better sense" says...

Chorus x2
Hey hey, turn the record over.
Hey hey, and I'll see you on the flip side.
There you go, turn the key and engine over.
Let her go, let somebody else lay at her feet.
And all my friends say,
Hey hey, turn the record over.
Hey hey, and I'll see you on the flip side.
There you go, turn the key and engine over.
Let her go, let somebody else lay at her feet.

Bridge
 C#m                     G#m
d|----------------------------------------|
A|-----5---5-----5---5-----4---4-----4---4|
F|-----6---6-----6---6-----4---4-----4---4|
C|---6---6-----6---6-----6---6-----6---6--|
G|-4---------4---------6---------6--------|
D|----------------------------------------|

   E                    A
d|------------------------------------------|
A|-----0---0-----0---0------2---2-----2---2-|
F|-----1---1-----1---1------2---2-----2---2-|
C|---2---2-----2---2------2---2-----2---2---|
G|-2---------2----------0---------0---------|
D|------------------------------------------|

Intro

Pre-Chorus

Chorus (Repeat until end)
Suggest correction
Give kudos to tab author, rate the tab!
1 2 3 4 5
comments
print report bad tab
guest
You may want to rate the tab now too:
select rating
Wanna post a correction for this tab? Suggest correction