Oops, an error
Loading. Please wait.

45 Bass Tab

version 1
version 1

Whole song

Interactive

8,438 views 12 this week
no commentswrite comment
1 2 3 4 5
please rate
add to favorites
launch autoscroll
font size
0
reset
guitar tuner
Autoscroll
slow
fast
+/-
esc
set tempo
stop
Help us to improve Ultimate-Guitar.com Take our survey!
×
Author
Difficulty
Tuning
novice
D# G# C# F# A# D#
Tuned half-step down

This is basic bassline without any of the fills:

intro:
-------------------------------------------------------------------|
-------------------------------------------------------------------|
-7-7-7-7-7-7-7-7-7-7-7-7-7-7-7-0-4-4-4-4-4-4-4-4-4-4-4-4-4-4-4-4---|
-------------------------------------------------------------------|

Verse 1: (Have you seen my hands?)
-------------------------------------------------------------------|
-------------------------------------------------------------------|
-7-7-7-7-7-7-7-7-7-7-7-7-7-7-7-0-4-4-4-4-4-4-4-4-4-4-4-4-4-4-4-4---|
-------------------------------------------------------------------|
x 3

Verse 2: (I can't move on and I can't stay the same)
-------------------------------------------------------------------|
-------------------------------------------------------------------|
-0-0-0-0-0-0-0-0-0-0-0-0-0-0-0-0-2-2-2-2-2-2-2-2-2-2-2-2-2-2-2-2---|
-------------------------------------------------------------------|
x 1

Chorus 1: (Hey, hey, turn the record over)
-------------------------------------------------------------------|
-------------------------------------------------------------------|
-----------------0-0-0-0-0-0-0-0-4-4-4-4-4-4-4-4-2-2-2-2-2-2-2-2---|
-0-0-0-0-0-0-0-0---------------------------------------------------|
x2

Chorus 2: (There you go, turn the key and engine over)
-------------------------------------------------------------------|
-------------------------------------------------------------------|
-7-7-7-7-7-7-7-7-2-2-2-2-2-2-2-2-4-4-4-4-4-4-4-4-0-0-0-0-0-0-0-0---|
-------------------------------------------------------------------|
x2

Intro

Verse 1 x3
Verse 2 x1

Chorus 1 x2
Chorus 2 x2

Guitar Solo:
-------------------------------------------------------------------|
-------------------------------------------------------------------|
-------------------------------------------------------------------|
-0-0-0-0-0-0-0-0-0-0-0-0-0-0-0-0-4-4-4-4-4-4-4-4-4-4-4-4-4-4-4-4---|

-------------------------------------------------------------------|
-------------------------------------------------------------------|
-0-0-0-0-0-0-0-0-0-0-0-0-0-0-0-0-2-2-2-2-2-2-2-2-2-2-2-2-2-2-2-2---|
-------------------------------------------------------------------|
whole thing x2

Chorus 1 x2
Chorus 2 x2

Outro:
-------------------------------------------------------------------|
-------------------------------------------------------------------|
-7-7-7-7-7-7-7-7-7-7-7-7-7-7-7-7-0-0-0-0-0-0-0-0-0-0-0-0-0-0-0-0---|
-------------------------------------------------------------------|

end on:
----------|
----------|
-4--------|
----------|
Suggest correction
Give kudos to tab author, rate the tab!
1 2 3 4 5
comments
print report bad tab
guest
You may want to rate the tab now too:
select rating
Please do not post tabs as comments. Select "correction" instead!