Oops, an error
Loading. Please wait.

45 Tab

version 1
version 1

Whole song

Interactive

39,148 views 54 this week
2 commentsread comments
1 2 3 4 5
x 15
add to favorites
launch autoscroll
font size
0
reset
how to read this tab
guitar tuner
×
Best way to learn
"45"
Autoscroll
slow
fast
+/-
esc
set tempo
stop
Author
Difficulty
Tuning
intermediate
D A D G B E
So there was no Tab for this song on the internet, so i decided to tab this song myself.

Drop D Tuning

[Intro]
 Part1       x4      Part2
E|-----------------|------------------------------------------------|
B|-----------------|--11~-------------------------------------------|
G|-----3------3----|-----12-10-10-12-10-8-8-10-10-12-8~-------------|
D|---1------1---1--|------------------------------------------------|
A|-3------1--------|------------------------------------------------|
D|-----------------|------------------------------------------------|


[Verse1]                     [Pre-Chorus]
           x5             
E|---------------------------|-------------------------------------------|
B|---------------------------|-------------------------------------------|
G|-8888888888333355555555777-|-------------------------------------------|
D|-8888888888333355555555777-|--666666888888-----------------------------|
A|-6666666666111133333333555-|--666666888888-----------------------------|
D|---------------------------|--666666888888-----------------------------|



[Chorus]                         [Post-Chorus]
       2x
E|--------------------------|----------------------------------------|
B|--------------------------|----------------------------------------|
G|-555555-------------333333|-----333355555--------------------------|
D|-5555556666661111111333333|-111133335555566666---------------------|
A|-3333336666661111111111111|-111111113333366666---------------------|
D|-------6666661111111------|-1111---------66666---------------------|

[Intro] (Part 1 & 2) 
[Verse]
[Pre-Chorus]
[Chorus]
[Post-Chorus]

[Bridge]
E|--------------------------------------------------------------------|
B|--------------------------------------------------------------------|
G|-888810101012121210101088877775777778755535557778881012131217192021-|
D|-xxxxxxxxxxxxxxxxxxxxxxxxxxxxxxxxxxxxxxxxxxxxxxxxxxxxxxxxxxxxxxxxxx-|
A|-6666-8-8-8101010-8-8-86665555355555653331333555666-810111015171819-|
D|--------------------------------------------------------------------|



E|--15-18-16-15-13-18-20-18-22---------------------------------------|
B|-------------------------------------------------------------------|
G|-------------------------------------------------------------------|
D|-------------------------------------------------------------------|
A|-------------------------------------------------------------------|
D|-------------------------------------------------------------------|

[Intro]
[Chorus]
[Post-Chorus]



************************************

| ~  Vibrato
| x  Dead note

************************************
Suggest correction
comments
print report bad tab
2 comments total.
0 reply
steeljake75 10 Oct 10, 2012 09:27 PM

excellent job of providing a starting point, thank you!

0 reply
asampson930 10 Jun 10, 2013 12:41 PM, edited on February 4 2014, 12:26 am

great job on the tabs, the only thing that is wrong is the chorus, which uses 355433 (or x355xx)466544 (or x466xx)x02220012200

guest
You may want to rate the tab now too:
select rating
Wanna post a correction for this tab? Suggest correction