Oops, an error
Loading. Please wait.

American Slang Tab

version 2
version 2

Whole song

Interactive

1,990 views 1 this week
no commentswrite comment
1 2 3 4 5
worth learning
x 3
add to favorites
launch autoscroll
font size
0
reset
how to read this tab
guitar tuner
Tab Pro tools
  • play this tab
  • loop segment
  • change instrument
  • show fretboard
  • metronome
×
Best way to learn
"American Slang"
Autoscroll
slow
fast
+/-
esc
set tempo
stop
Contributor


       American slang- Gaslight anthem

  Pretty sure gaslight play all their songs a whole step down but heres how i play it in 
standard tuning


Intro
Guitar 1
- e-------------------------------------------|
- b-------------------------------------------|
 -g-------------------------------------------|
 -d--5555555555555555555----------------------|
 -a--3333333333333333333--33333333-555555555--|
 -e-----------------------11111111-333333333--|
Guitar 2
e----------------------------------|--5-3----------33-55------------|
b----------------------------------|------5-p-3----------5-p-3------|
g-555555555555555------------------|------------5--------------5----|
d------------------33333333-5555555-|-------------------------------|
a-----------------------------------|-------------------------------|
e-----------------------------------|-------------------------------|

e-5-3----------3-----3-------3--------3-------|
b-----5-p-3------3------3------3--------------|
g-----------5------5------5-------5-----------|
d------------------Let ring-------------------|
a---------------------------------------------|
e---------------------------------------------|

Verse
Guitar 1
e--------------------333333333---------|
b-11-11-1-1---------0000000000---------|
g-22-22-0-2---------0000000000---------|
d-22-22-0-2-33-33-3--000000000-TIMES 2-|
a-00-00-0-0-33-33-3--222222222---------|
e-----------11-11-1--333333333---------|

guitar 2
e-------------------3---------------------|
b-1-----------------0---------------------|
g-2-----------------0---------------------|
d-2---------3-------0--0-2-0----0-TIMES 2-|
a-0---------3-------2--------3------------|
e-----------1-------3---------------------|

Guitar1
e-------------------1111111111111111-|
b-1111111111111111--1111111111111111-|
g-0000000000000000--2222222222222222-|TIMES 2
d-2222222222222222--3333333333333333-|
a-3333333333333333--3333333333333333-|
e-------------------1111111111111111-|

guitar 2
e-----------------------------------------------|
b-----------------------------------------------|
g-12-12-12-12-12-12-12-12-12-12-12-12-----------|
d-#---#--#--#--#--#--#--#--#--#--#--#---TIMES 2-|
a-10-10-10-10-10-10-10-10-10-10-10-10-----------|
e-----------------------------------------------|

chorus
Guitar 1
e-00000--3333-1111-------------------------11111111-------------|
b-11111--0000-1111-1111111111111111--------11111111-------------|
g-22222--0000-2222-0000000000000000-Times--22222222-------------|
d-22222--0000-3333-2222222222222222--3-----33333333-55555555----|
a-00000--2222-3333-3333333333333333--------33333333-55555555----|
e--------3333-1111-------------------------11111111-33333333----|

Guitar 2
e-------------------------------------------------------|
b-------------------------------------------------------|
g-14-14-14-14-12-12-12-12-10-10-10-10-------------------|
d--#--#--#--#--#--#--#--#-#--#-#-#--#-5555555555555555--|
a-12-12-12-12-10-10-10-10-8---8--8--8-3333333333333333--|
e-------------------------------------------------------|

e----------------------------------------------------------------------|
b----------------------------------------------------------------------|
g-14-14-14-14-12-12-12-12-10-10-10-10-17-17-17-17-17-17-17-17-17-17-17-|
d-#-#-#-#-#-#-#-#-#-#-#-#-#-#-#-#-#-#-#-#-#-#-#-#-#-#-#-#-#-#-#-#-#-##-|
a-12-12-12-12-10-10-10-10-8--8--8--8--15-15-15-15-15-15-15-15-15-15-15-|
e----------------------------------------------------------------------|

e-------------------------------------------------------|
b-------------------------------------------------------|
g-14-14-14-14-12-12-12-12-10-10-10-10-------------------|
d-#-#-#-#-#-#-#-#-#-#-#-#-#-#-#-#-#-#-555555555555555---|
a-12-12-12-12-10-10-10-10-8--8--8--8--333333333333333---|
e-------------------------------------------------------|

e-11111111----------|
b-11111111----------|
g-22222222----------|
d-33333333-55555555-|
a-33333333-55555555-|
e-11111111-33333333-|

Bridge
guitar 1
e-00000000-33333333-111111111-------------------------------1111111---------|
b-11111111-00000000-111111111-----1-----------1-------------1111111---------|
g-22222222-00000000-222222222-------0------------0-times 2--2222222---------|
d-22222222-00000000-333333333---2----------0----------------3333333-5555555-|
a-00000000-22222222-333333333-3---------2-------------------3333333-5555555-|
e----------33333333-111111111-------------------------------1111111-3333333-|

Guitar 2
e-------------------------------------------------------------------------|
b-------------------------------------------------------------------------|
g-14-14-14-14-14-14-14-14-16-16-16-16-16-16-16-16-10-10-10-10-10-10-10-10-|
d-#--#--#--#--#--#--#--#--#--#--#--#--#--#--#--#--#--#--#--#--#--#--#--#--|
a-12-12-12-12-12-12-12-12-14-14-14-14-14-14-14-14-8--8--8--8--8--8--8--8--|
e-------------------------------------------------------------------------|

e--------------------------------------------------------------------------|
b--------------------------------------------------------------------------|
g-17-17-17-17-16-16-16-16----------14-14-14-14-14-14-14-12-12-12-12-12-12--|
d-#--#--#--#-#--#-#--#--#-times 2--#--#--#--#--#--#--#--#--#--#--#--#--#---|
a-15-15-15-15-14-14-14-14----------12-12-12-12-12-12-12-10-10-10-10-10-10--|
e--------------------------------------------------------------------------|


Thats about it guitar geeks, comment on what you think
comments
We did not receive enough feedback on this tab! Please rate:
print report bad tab
1 2 3 4 5
I want to post or [tab]
guest
You may want to rate the tab now too:
select rating
Please do not post tabs as comments. Select "correction" instead!