Oops, an error
Loading. Please wait.

Blue Jeans And White T-Shirts Tab

version 2
version 2

Whole song

58,973 views 45 this week
1 commentread comment
1 2 3 4 5
x 21
add to favorites
launch autoscroll
font size
0
reset
how to read this tab
guitar tuner
×
Best way to learn
"Blue Jeans And White T-shirts"
Autoscroll
slow
fast
+/-
esc
set tempo
stop
Tuning
D G C F A D
Artist: The Gaslight Anthem
Song: Blue Jeans & White T-Shirts
Tuning: 1 step down

Chords:
Em / Em7:    x75007 / 022033
C7 / Cadd9:  x3540x / x32033
G : 35540x / 320033
D : x577xx / xx0232

Many of the chords are interchangeable.  The Verse chord shapes can 
be used in the Chorus, and vice versa.  
Be sure to focus on hitting the D (C) string and letting it ring to get the right sound.

[Intro]

D|----7-7-7----7-7-7---7----------------------------7--|
A|----0-0-0----0-0-0---0------0---0-0-0---0--0------0--|
F|----0-0-0----0-0-0---0------4---4-4-4---4--4------0--|
C|----5-5-5----5-5-5---5------5---5-5-5---5--5------5--|
G|--7--------7-------7---5--3----3-------3------x-7----|
D|-----------------------------------------------------|

[Verse]

D|-(7)--------------|       |                          |-------------|
A|--0--(0)-(0)-(0)--|       |                          |-------------|
F|--0---4---4---4---|       | Verse--->Chorus          |--(0)--------|
C|-(5)--5---5---5---|       | Chorus--->Verse          |---7---7---7-|
G|--7---3---5---3---|       |                          |-5---5---5---|
D|----------3-------|       |                          |-------------|
 
[Chorus]

D|--------------------|     |                          |--3---3---3---2--|
A|-----(0)-(0)--------|     | Chorus chords are        |--3---3---3---3--|
F|--9---4---4---7-----|     | often also played        |--0---0---0---2--|
C|--9---5---5---7-----|     | open like this           |--2---2---0---0--|
G|--7---3---5---5-----|     |                          |--2---3---2------|
D|----------3---------|     |                          |-(0)------3------|

Do not play the last chord 
(D) of the chorus afer the 3rd
repeat through, Just the E, C7
and G x2



************************************

| x    Dead note
| (n)  Ghost note 

************************************
Suggest correction
comments
print report bad tab
1 comment total.
0 reply
green.justin1 10 Oct 18, 2015 07:18 AM

This is the only accurate version I've found, all the rest are way off with goofy tunings that make no sense. Thanks for the great work eup.jasari@gmail.com

guest
You may want to rate the tab now too:
select rating
Wanna post a correction for this tab? Suggest correction