Oops, an error
Loading. Please wait.

Casanova Baby Bass Tab

version 1
version 1

Whole song

Interactive

2,194 views 1 this week
no commentswrite comment
1 2 3 4 5
excellent!
x 2
add to favorites
launch autoscroll
font size
0
reset
guitar tuner
Tab Pro tools
  • play this tab
  • loop segment
  • change instrument
  • show fretboard
  • metronome
Autoscroll
slow
fast
+/-
esc
set tempo
stop
Contributor
Difficulty
Tuning
novice
D A D G B E
------------------------------------------------------------------
			     Casanova, Baby! - The Gaslight Anthem
------------------------------------------------------------------

Song: Casanova, Baby!
Band: The Gaslight Anthem
Tabbed By : Billy M

Tuning: Drop D

Come in at 0:09

Verse 1: (0:09-0:18)
G|----------------------------------------|
D|----------------------------------------|
A|-1-1-1-1-1-1-1-1------------------------| x2
D|-----------------5-5-5-5-3-3-3-3--------|

(0:18-0:27)                                      "oh my my Virgina"
G|-----------------------------------------------------------------------|
D|-----------------------------------------------------------------------|
A|-1-1-1-1-1-1-1-1-------------------------------------------------------|
D|-----------------5-5-5-5-3-3-3-3-1-1-1-1-1-1-1-1-5-5-5-5-3-3-3-3-------|

Chorus (0:27-0:35)
G|-----------------------------------------------------------------------|
D|-----------------------------------------------------------------------|
A|-1-1-1-1-1-1-1-1-----------------1-1-1-1-1-1-1-1-----------------------|
D|-----------------1-1-1-1-1-1-1-1-----------------1-1-1-1-3-3-3-3-------|

"I still wanna be your man..." (0:35-0:45)
G|---------------------------------------------|
D|---------------------------------------------|
A|-----------------1-1-1-1---------------------| x2
D|-5-5-5-5-1-1-1-1---------3-3-3-3-------------|

Pre-Verse (0:45-0:58)
G|----------------------------------------|
D|----------------------------------------|
A|-1-1-1-1-1-1-1-1------------------------|
D|-----------------5-5-5-5-3-3-3-3--------|

G|-----------------------------------------------------------------------|
D|-----------------------------------------------------------------------|
A|-1-1-1-1-1-1-1-1-------------------------------------------------------|
D|-----------------5-5-5-5-3-3-3-3-1-1-1-1-1-1-1-1-5-5-5-5-3-3-3-3-------|

Verse 2: (0:58-1:33)
G|----------------------------------------|
D|----------------------------------------|
A|-1-1-1-1-1-1-1-1------------------------|
D|-----------------5-5-5-5-3-3-3-3--------|

G|----------------------------------------|
D|----------------------------------------|
A|----------------------------------------|
D|-8-8-8-8-8-88\--5-5-5-5-3-3-3-3---------|

G|-----------------------------------------------------------------------|
D|-----------------------------------------------------------------------|
A|-1-1-1-1-1-1-1-1-------------------------------------------------------|
D|-----------------5-5-5-5-3-3-3-3-1-1-1-1-1-1-1-1-5-5-5-5-3-3-3-3-------|

G|----------------------------------------|
D|----------------------------------------|
A|-1-1-1-1-1-1-1-1------------------------| x2
D|-----------------5-5-5-5-3-3-3-3--------|
                                                  "oh my my Virgina"
G|-----------------------------------------------------------------------|
D|-----------------------------------------------------------------------|
A|-1-1-1-1-1-1-1-1-------------------------------------------------------|
D|-----------------5-5-5-5-3-3-3-3-1-1-1-1-1-1-1-1-5-5-5-5-3-3-3-3-------|

Chorus (1:33-1:42)
G|-----------------------------------------------------------------------|
D|-----------------------------------------------------------------------|
A|-1-1-1-1-1-1-1-1-----------------1-1-1-1-1-1-1-1-----------------------|
D|-----------------1-1-1-1-1-1-1-1-----------------1-1-1-1-3-3-3-3-------|

"I still wanna be your man..." (1:42-1:52)
G|---------------------------------------------|
D|---------------------------------------------|
A|-----------------1-1-1-1---------------------| x2
D|-5-5-5-5-1-1-1-1---------3-3-3-3-------------|

(1:52-2:04)
G|----------------------------------------|
D|----------------------------------------|
A|----------------------------------------| x3
D|-1-1-1-1-1-1-1-1-5-5-5-5-3-3-3-3--------|

(2:04-2:09) "oh my my Virgina"
G|-----------------------------|
D|-----------------------------|
A|-----------------1-----------|
D|-1-1-1-1-1-1-1-1----3--------|


Chorus (2:09-2:27) play this measure x2
G|-----------------------------------------------------------------------|
D|-----------------------------------------------------------------------|
A|-1-1-1-1-1-1-1-1-----------------1-1-1-1-1-1-1-1-----------------------|
D|-----------------1-1-1-1-1-1-1-1-----------------1-1-1-1-3-3-3-3-------|

"I still wanna be your man..." (2:27-2:35)
G|---------------------------------------------|
D|---------------------------------------------|
A|-----------------1-1-1-1---------------------| x2
D|-5-5-5-5-1-1-1-1---------3-3-3-3-------------|

(2:35-2:44)
G|----------------------------------------|
D|----------------------------------------|
A|-1-1-1-1-1-1-1-1------------------------| x2
D|-----------------5-5-5-5-3-3-3-3--------|

Outro: (2:44-2:58) slide to the last note and let it ring out
G|-----------------------------------------------------------------------|
D|-----------------------------------------------------------------------|
A|-1-1-1-1-1-1-1-1-------------------------------------------------------|
D|-----------------5-5-5-5-3-3-3-3-1-1-1-1-1-1-1-1/5-5-5-5-3-3-3-3/8r----|


| /  slide up
| \  slide down
| h  hammer-on
| p  pull-off
| ~  vibrato
| +  harmonic
| x  Mute note
==========================================================================
comments
We did not receive enough feedback on this tab! Please rate:
print report bad tab
1 2 3 4 5
I want to post or [tab]
guest
You may want to rate the tab now too:
select rating
Please do not post tabs as comments. Select "correction" instead!